  0
SECTION
  2
HEADER
  9
$ACADVER
  1
AC1018
  9
$ACADMAINTVER
 70
     0
  9
$DWGCODEPAGE
  3
ASCII
  9
$INSBASE
 10
0.0
 20
0.0
 30
0.0
  9
$EXTMIN
 10
1.000000000000000E+20
 20
1.000000000000000E+20
 30
1.000000000000000E+20
  9
$EXTMAX
 10
-1.000000000000000E+20
 20
-1.000000000000000E+20
 30
-1.000000000000000E+20
  9
$LIMMIN
 10
0.0
 20
0.0
  9
$LIMMAX
 10
12.0
 20
9.0
  9
$ORTHOMODE
 70
     0
  9
$REGENMODE
 70
     1
  9
$FILLMODE
 70
     1
  9
$QTEXTMODE
 70
     0
  9
$MIRRTEXT
 70
     1
  9
$LTSCALE
 40
1.0
  9
$ATTMODE
 70
     1
  9
$TEXTSIZE
 40
0.2
  9
$TRACEWID
 40
0.05
  9
$TEXTSTYLE
  7
Standard
  9
$CLAYER
  8
0
  9
$CELTYPE
  6
ByLayer
  9
$CECOLOR
 62
   256
  9
$CELTSCALE
 40
1.0
  9
$DISPSILH
 70
     0
  9
$DIMSCALE
 40
1.0
  9
$DIMASZ
 40
0.18
  9
$DIMEXO
 40
0.0625
  9
$DIMDLI
 40
0.38
  9
$DIMRND
 40
0.0
  9
$DIMDLE
 40
0.0
  9
$DIMEXE
 40
0.18
  9
$DIMTP
 40
0.0
  9
$DIMTM
 40
0.0
  9
$DIMTXT
 40
0.18
  9
$DIMCEN
 40
0.09
  9
$DIMTSZ
 40
0.0
  9
$DIMTOL
 70
     0
  9
$DIMLIM
 70
     0
  9
$DIMTIH
 70
     1
  9
$DIMTOH
 70
     1
  9
$DIMSE1
 70
     0
  9
$DIMSE2
 70
     0
  9
$DIMTAD
 70
     0
  9
$DIMZIN
 70
     0
  9
$DIMBLK
  1

  9
$DIMASO
 70
     1
  9
$DIMSHO
 70
     1
  9
$DIMPOST
  1

  9
$DIMAPOST
  1

  9
$DIMALT
 70
     0
  9
$DIMALTD
 70
     2
  9
$DIMALTF
 40
25.4
  9
$DIMLFAC
 40
1.0
  9
$DIMTOFL
 70
     0
  9
$DIMTVP
 40
0.0
  9
$DIMTIX
 70
     0
  9
$DIMSOXD
 70
     0
  9
$DIMSAH
 70
     0
  9
$DIMBLK1
  1

  9
$DIMBLK2
  1

  9
$DIMSTYLE
  2
Standard
  9
$DIMCLRD
 70
     0
  9
$DIMCLRE
 70
     0
  9
$DIMCLRT
 70
     0
  9
$DIMTFAC
 40
1.0
  9
$DIMGAP
 40
0.09
  9
$DIMJUST
 70
     0
  9
$DIMSD1
 70
     0
  9
$DIMSD2
 70
     0
  9
$DIMTOLJ
 70
     1
  9
$DIMTZIN
 70
     0
  9
$DIMALTZ
 70
     0
  9
$DIMALTTZ
 70
     0
  9
$DIMUPT
 70
     0
  9
$DIMDEC
 70
     4
  9
$DIMTDEC
 70
     4
  9
$DIMALTU
 70
     2
  9
$DIMALTTD
 70
     2
  9
$DIMTXSTY
  7
Standard
  9
$DIMAUNIT
 70
     0
  9
$DIMADEC
 70
     0
  9
$DIMALTRND
 40
0.0
  9
$DIMAZIN
 70
     0
  9
$DIMDSEP
 70
    46
  9
$DIMATFIT
 70
     3
  9
$DIMFRAC
 70
     0
  9
$DIMLDRBLK
  1

  9
$DIMLUNIT
 70
     2
  9
$DIMLWD
 70
    -2
  9
$DIMLWE
 70
    -2
  9
$DIMTMOVE
 70
     0
  9
$LUNITS
 70
     2
  9
$LUPREC
 70
     4
  9
$SKETCHINC
 40
0.1
  9
$FILLETRAD
 40
0.5
  9
$AUNITS
 70
     0
  9
$AUPREC
 70
     0
  9
$MENU
  1
.
  9
$ELEVATION
 40
0.0
  9
$PELEVATION
 40
0.0
  9
$THICKNESS
 40
0.0
  9
$LIMCHECK
 70
     0
  9
$CHAMFERA
 40
0.5
  9
$CHAMFERB
 40
0.5
  9
$CHAMFERC
 40
1.0
  9
$CHAMFERD
 40
0.0
  9
$SKPOLY
 70
     0
  9
$TDCREATE
 40
2455987.679282407
  9
$TDUCREATE
 40
2455987.637615741
  9
$TDUPDATE
 40
2455987.679282419
  9
$TDUUPDATE
 40
2455987.637615752
  9
$TDINDWG
 40
0.0000000116
  9
$TDUSRTIMER
 40
0.0000000116
  9
$USRTIMER
 70
     1
  9
$ANGBASE
 50
0.0
  9
$ANGDIR
 70
     0
  9
$PDMODE
 70
     0
  9
$PDSIZE
 40
0.0
  9
$PLINEWID
 40
0.0
  9
$SPLFRAME
 70
     0
  9
$SPLINETYPE
 70
     6
  9
$SPLINESEGS
 70
     8
  9
$HANDSEED
  5
C2
  9
$SURFTAB1
 70
     6
  9
$SURFTAB2
 70
     6
  9
$SURFTYPE
 70
     6
  9
$SURFU
 70
     6
  9
$SURFV
 70
     6
  9
$UCSBASE
  2

  9
$UCSNAME
  2

  9
$UCSORG
 10
0.0
 20
0.0
 30
0.0
  9
$UCSXDIR
 10
1.0
 20
0.0
 30
0.0
  9
$UCSYDIR
 10
0.0
 20
1.0
 30
0.0
  9
$UCSORTHOREF
  2

  9
$UCSORTHOVIEW
 70
     0
  9
$UCSORGTOP
 10
0.0
 20
0.0
 30
0.0
  9
$UCSORGBOTTOM
 10
0.0
 20
0.0
 30
0.0
  9
$UCSORGLEFT
 10
0.0
 20
0.0
 30
0.0
  9
$UCSORGRIGHT
 10
0.0
 20
0.0
 30
0.0
  9
$UCSORGFRONT
 10
0.0
 20
0.0
 30
0.0
  9
$UCSORGBACK
 10
0.0
 20
0.0
 30
0.0
  9
$PUCSBASE
  2

  9
$PUCSNAME
  2

  9
$PUCSORG
 10
0.0
 20
0.0
 30
0.0
  9
$PUCSXDIR
 10
1.0
 20
0.0
 30
0.0
  9
$PUCSYDIR
 10
0.0
 20
1.0
 30
0.0
  9
$PUCSORTHOREF
  2

  9
$PUCSORTHOVIEW
 70
     0
  9
$PUCSORGTOP
 10
0.0
 20
0.0
 30
0.0
  9
$PUCSORGBOTTOM
 10
0.0
 20
0.0
 30
0.0
  9
$PUCSORGLEFT
 10
0.0
 20
0.0
 30
0.0
  9
$PUCSORGRIGHT
 10
0.0
 20
0.0
 30
0.0
  9
$PUCSORGFRONT
 10
0.0
 20
0.0
 30
0.0
  9
$PUCSORGBACK
 10
0.0
 20
0.0
 30
0.0
  9
$USERI1
 70
     0
  9
$USERI2
 70
     0
  9
$USERI3
 70
     0
  9
$USERI4
 70
     0
  9
$USERI5
 70
     0
  9
$USERR1
 40
0.0
  9
$USERR2
 40
0.0
  9
$USERR3
 40
0.0
  9
$USERR4
 40
0.0
  9
$USERR5
 40
0.0
  9
$WORLDVIEW
 70
     1
  9
$SHADEDGE
 70
     3
  9
$SHADEDIF
 70
    70
  9
$TILEMODE
 70
     1
  9
$MAXACTVP
 70
    64
  9
$PINSBASE
 10
0.0
 20
0.0
 30
0.0
  9
$PLIMCHECK
 70
     0
  9
$PEXTMIN
 10
1.000000000000000E+20
 20
1.000000000000000E+20
 30
1.000000000000000E+20
  9
$PEXTMAX
 10
-1.000000000000000E+20
 20
-1.000000000000000E+20
 30
-1.000000000000000E+20
  9
$PLIMMIN
 10
0.0
 20
0.0
  9
$PLIMMAX
 10
12.0
 20
9.0
  9
$UNITMODE
 70
     0
  9
$VISRETAIN
 70
     1
  9
$PLINEGEN
 70
     0
  9
$PSLTSCALE
 70
     1
  9
$TREEDEPTH
 70
  3020
  9
$CMLSTYLE
  2
Standard
  9
$CMLJUST
 70
     0
  9
$CMLSCALE
 40
1.0
  9
$PROXYGRAPHICS
 70
     1
  9
$MEASUREMENT
 70
     0
  9
$CELWEIGHT
370
    -1
  9
$ENDCAPS
280
     0
  9
$JOINSTYLE
280
     0
  9
$LWDISPLAY
290
     1
  9
$INSUNITS
 70
     1
  9
$HYPERLINKBASE
  1

  9
$STYLESHEET
  1

  9
$XEDIT
290
     1
  9
$CEPSNTYPE
380
     0
  9
$PSTYLEMODE
290
     1
  9
$FINGERPRINTGUID
  2
{5C17CE45-3755-9F81-889B-E7487790042A}
  9
$VERSIONGUID
  2
{FAEB1C32-E019-11D5-929B-00C0DF256EC4}
  9
$EXTNAMES
290
     1
  9
$PSVPSCALE
 40
0.0
  9
$OLESTARTUP
290
     0
  9
$SORTENTS
280
   127
  9
$INDEXCTL
280
     0
  9
$HIDETEXT
280
     1
  9
$XCLIPFRAME
290
     0
  9
$HALOGAP
280
     0
  9
$OBSCOLOR
 70
   257
  9
$OBSLTYPE
280
     0
  9
$INTERSECTIONDISPLAY
280
     0
  9
$INTERSECTIONCOLOR
 70
   257
  9
$DIMASSOC
280
     2
  9
$PROJECTNAME
  1

  0
ENDSEC
  0
SECTION
  2
CLASSES
  0
CLASS
  1
ACDBDICTIONARYWDFLT
  2
AcDbDictionaryWithDefault
  3
ObjectDBX Classes
 90
        0
 91
        3
280
     0
281
     0
  0
CLASS
  1
VISUALSTYLE
  2
AcDbVisualStyle
  3
ObjectDBX Classes
 90
     4095
 91
        3
280
     0
281
     0
  0
ENDSEC
  0
SECTION
  2
TABLES
  0
TABLE
  2
VPORT
  5
8
330
0
100
AcDbSymbolTable
 70
     1
  0
VPORT
  5
29
330
8
100
AcDbSymbolTableRecord
100
AcDbViewportTableRecord
  2
*Active
 70
     0
 10
0.0
 20
0.0
 11
1.0
 21
1.0
 12
0.0
 22
0.0
 13
0.0
 23
0.0
 14
0.5
 24
0.5
 15
0.5
 25
0.5
 16
0.0
 26
0.0
 36
1.0
 17
14.85939564964035
 27
10.57274663685257
 37
0.0
 40
20.27300228493436
 41
1.286949166350332
 42
50.0
 43
0.0
 44
0.0
 50
0.0
 51
0.0
 71
     0
 72
   100
 73
     1
 74
     3
 75
     0
 76
     0
 77
     0
 78
     0
281
     0
 65
     1
110
0.0
120
0.0
130
0.0
111
1.0
121
0.0
131
0.0
112
0.0
122
1.0
132
0.0
 79
     0
146
0.0
  0
ENDTAB
  0
TABLE
  2
LTYPE
  5
5
330
0
100
AcDbSymbolTable
 70
     1
  0
LTYPE
  5
14
330
5
100
AcDbSymbolTableRecord
100
AcDbLinetypeTableRecord
  2
ByBlock
 70
     0
  3

 72
    65
 73
     0
 40
0.0
  0
LTYPE
  5
15
330
5
100
AcDbSymbolTableRecord
100
AcDbLinetypeTableRecord
  2
ByLayer
 70
     0
  3

 72
    65
 73
     0
 40
0.0
  0
LTYPE
  5
16
330
5
100
AcDbSymbolTableRecord
100
AcDbLinetypeTableRecord
  2
Continuous
 70
     0
  3
Solid line
 72
    65
 73
     0
 40
0.0
  0
ENDTAB
  0
TABLE
  2
LAYER
  5
2
330
0
100
AcDbSymbolTable
 70
     2
  0
LAYER
  5
10
330
2
100
AcDbSymbolTableRecord
100
AcDbLayerTableRecord
  2
0
 70
     0
 62
     7
  6
Continuous
370
    -3
390
F
  0
LAYER
  5
3B
330
2
100
AcDbSymbolTableRecord
100
AcDbLayerTableRecord
  2
Layer 1
 70
     0
 62
     7
  6
Continuous
370
    -3
390
F
  0
ENDTAB
  0
TABLE
  2
STYLE
  5
3
330
0
100
AcDbSymbolTable
 70
     1
  0
STYLE
  5
11
330
3
100
AcDbSymbolTableRecord
100
AcDbTextStyleTableRecord
  2
Standard
 70
     0
 40
0.0
 41
1.0
 50
0.0
 71
     0
 42
0.2
  3
txt
  4

  0
ENDTAB
  0
TABLE
  2
VIEW
  5
6
330
0
100
AcDbSymbolTable
 70
     0
  0
ENDTAB
  0
TABLE
  2
UCS
  5
7
330
0
100
AcDbSymbolTable
 70
     0
  0
ENDTAB
  0
TABLE
  2
APPID
  5
9
330
0
100
AcDbSymbolTable
 70
     1
  0
APPID
  5
12
330
9
100
AcDbSymbolTableRecord
100
AcDbRegAppTableRecord
  2
ACAD
 70
     0
  0
ENDTAB
  0
TABLE
  2
DIMSTYLE
  5
A
330
0
100
AcDbSymbolTable
 70
     1
100
AcDbDimStyleTable
  0
DIMSTYLE
105
27
330
A
100
AcDbSymbolTableRecord
100
AcDbDimStyleTableRecord
  2
Standard
 70
     0
340
11
  0
ENDTAB
  0
TABLE
  2
BLOCK_RECORD
  5
1
330
0
100
AcDbSymbolTable
 70
     2
  0
BLOCK_RECORD
  5
1F
330
1
100
AcDbSymbolTableRecord
100
AcDbBlockTableRecord
  2
*Model_Space
340
22
  0
BLOCK_RECORD
  5
1B
330
1
100
AcDbSymbolTableRecord
100
AcDbBlockTableRecord
  2
*Paper_Space
340
1E
  0
BLOCK_RECORD
  5
23
330
1
100
AcDbSymbolTableRecord
100
AcDbBlockTableRecord
  2
*Paper_Space0
340
26
  0
BLOCK_RECORD
  5
52
330
1
100
AcDbSymbolTableRecord
100
AcDbBlockTableRecord
  2
block 2
340
0
102
{BLKREFS
331
53
102
}
  0
ENDTAB
  0
ENDSEC
  0
SECTION
  2
BLOCKS
  0
BLOCK
  5
20
330
1F
100
AcDbEntity
  8
0
100
AcDbBlockBegin
  2
*Model_Space
 70
     0
 71
     0
 10
0.0
 20
0.0
 30
0.0
  3
*Model_Space
  1

  0
ENDBLK
  5
21
330
1F
100
AcDbEntity
  8
0
100
AcDbBlockEnd
  0
BLOCK
  5
1C
330
1B
100
AcDbEntity
 67
     1
  8
0
100
AcDbBlockBegin
  2
*Paper_Space
 70
     0
 71
     0
 10
0.0
 20
0.0
 30
0.0
  3
*Paper_Space
  1

  0
ENDBLK
  5
1D
330
1B
100
AcDbEntity
 67
     1
  8
0
100
AcDbBlockEnd
  0
BLOCK
  5
24
330
23
100
AcDbEntity
  8
0
100
AcDbBlockBegin
  2
*Paper_Space0
 70
     0
 71
     0
 10
0.0
 20
0.0
 30
0.0
  3
*Paper_Space0
  1

  0
ENDBLK
  5
25
330
23
100
AcDbEntity
  8
0
100
AcDbBlockEnd
  0
BLOCK
  5
54
330
52
100
AcDbEntity
  8
0
100
AcDbBlockBegin
  2
block 2
 70
     0
 71
     0
 10
0.0
 20
0.0
 30
0.0
  3
block 2
  1

  0
POLYLINE
  5
56
330
52
100
AcDbEntity
  8
Layer 1
370
     0
100
AcDb2dPolyline
 66
     1
 10
0.0
 20
0.0
 30
0.0
  0
VERTEX
  5
57
330
56
100
AcDbEntity
  8
Layer 1
370
     0
100
AcDbVertex
100
AcDb2dVertex
 10
7.344293851400307
 20
7.629168985006159
 30
0.0
  0
VERTEX
  5
58
330
56
100
AcDbEntity
  8
Layer 1
370
     0
100
AcDbVertex
100
AcDb2dVertex
 10
7.344293851400307
 20
9.874993762443804
 30
0.0
  0
VERTEX
  5
59
330
56
100
AcDbEntity
  8
Layer 1
370
     0
100
AcDbVertex
100
AcDb2dVertex
 10
8.785343792578102
 20
9.874993762443804
 30
0.0
  0
VERTEX
  5
5A
330
56
100
AcDbEntity
  8
Layer 1
370
     0
100
AcDbVertex
100
AcDb2dVertex
 10
8.785343792578102
 20
9.49506838169579
 30
0.0
  0
VERTEX
  5
5B
330
56
100
AcDbEntity
  8
Layer 1
370
     0
100
AcDbVertex
100
AcDb2dVertex
 10
7.768729895181187
 20
9.49506838169579
 30
0.0
  0
VERTEX
  5
5C
330
56
100
AcDbEntity
  8
Layer 1
370
     0
100
AcDbVertex
100
AcDb2dVertex
 10
7.768729895181187
 20
8.9634897976423
 30
0.0
  0
VERTEX
  5
5D
330
56
100
AcDbEntity
  8
Layer 1
370
     0
100
AcDbVertex
100
AcDb2dVertex
 10
8.646265196089187
 20
8.9634897976423
 30
0.0
  0
VERTEX
  5
5E
330
56
100
AcDbEntity
  8
Layer 1
370
     0
100
AcDbVertex
100
AcDb2dVertex
 10
8.646265196089187
 20
8.583598867871865
 30
0.0
  0
VERTEX
  5
5F
330
56
100
AcDbEntity
  8
Layer 1
370
     0
100
AcDbVertex
100
AcDb2dVertex
 10
7.768729895181187
 20
8.583598867871865
 30
0.0
  0
VERTEX
  5
60
330
56
100
AcDbEntity
  8
Layer 1
370
     0
100
AcDbVertex
100
AcDb2dVertex
 10
7.768729895181187
 20
7.629168985006159
 30
0.0
  0
VERTEX
  5
61
330
56
100
AcDbEntity
  8
Layer 1
370
     0
100
AcDbVertex
100
AcDb2dVertex
 10
7.344293851400307
 20
7.629168985006159
 30
0.0
  0
SEQEND
  5
62
330
56
100
AcDbEntity
  8
Layer 1
370
     0
  0
HATCH
  5
63
330
52
100
AcDbEntity
  8
Layer 1
 62
     9
420
 13154231
100
AcDbHatch
 10
0.0
 20
0.0
 30
0.0
210
0.0
220
0.0
230
1.0
  2
SOLID
 70
     1
 71
     0
 91
        1
 92
        1
 93
       10
 72
     1
 10
7.344293851400307
 20
7.629168985006159
 11
7.344293851400307
 21
9.874993762443804
 72
     1
 10
7.344293851400307
 20
9.874993762443804
 11
8.785343792578102
 21
9.874993762443804
 72
     1
 10
8.785343792578102
 20
9.874993762443804
 11
8.785343792578102
 21
9.49506838169579
 72
     1
 10
8.785343792578102
 20
9.49506838169579
 11
7.768729895181187
 21
9.49506838169579
 72
     1
 10
7.768729895181187
 20
9.49506838169579
 11
7.768729895181187
 21
8.9634897976423
 72
     1
 10
7.768729895181187
 20
8.9634897976423
 11
8.646265196089187
 21
8.9634897976423
 72
     1
 10
8.646265196089187
 20
8.9634897976423
 11
8.646265196089187
 21
8.583598867871865
 72
     1
 10
8.646265196089187
 20
8.583598867871865
 11
7.768729895181187
 21
8.583598867871865
 72
     1
 10
7.768729895181187
 20
8.583598867871865
 11
7.768729895181187
 21
7.629168985006159
 72
     1
 10
7.768729895181187
 20
7.629168985006159
 11
7.344293851400307
 21
7.629168985006159
 97
        0
 75
     2
 76
     1
 98
        0
  0
POLYLINE
  5
64
330
52
100
AcDbEntity
  8
Layer 1
370
     0
100
AcDb2dPolyline
 66
     1
 10
0.0
 20
0.0
 30
0.0
  0
VERTEX
  5
65
330
64
100
AcDbEntity
  8
Layer 1
370
     0
100
AcDbVertex
100
AcDb2dVertex
 10
9.13522792087669
 20
7.629168985006159
 30
0.0
  0
VERTEX
  5
66
330
64
100
AcDbEntity
  8
Layer 1
370
     0
100
AcDbVertex
100
AcDb2dVertex
 10
9.13522792087669
 20
9.874993762443804
 30
0.0
  0
VERTEX
  5
67
330
64
100
AcDbEntity
  8
Layer 1
370
     0
100
AcDbVertex
100
AcDb2dVertex
 10
10.69382459755614
 20
9.874993762443804
 30
0.0
  0
VERTEX
  5
68
330
64
100
AcDbEntity
  8
Layer 1
370
     0
100
AcDbVertex
100
AcDb2dVertex
 10
10.69382459755614
 20
9.49506838169579
 30
0.0
  0
VERTEX
  5
69
330
64
100
AcDbEntity
  8
Layer 1
370
     0
100
AcDbVertex
100
AcDb2dVertex
 10
9.55962951367999
 20
9.49506838169579
 30
0.0
  0
VERTEX
  5
6A
330
64
100
AcDbEntity
  8
Layer 1
370
     0
100
AcDbVertex
100
AcDb2dVertex
 10
9.55962951367999
 20
8.997217304692745
 30
0.0
  0
VERTEX
  5
6B
330
64
100
AcDbEntity
  8
Layer 1
370
     0
100
AcDbVertex
100
AcDb2dVertex
 10
10.6149663098764
 20
8.997217304692745
 30
0.0
  0
VERTEX
  5
6C
330
64
100
AcDbEntity
  8
Layer 1
370
     0
100
AcDbVertex
100
AcDb2dVertex
 10
10.6149663098764
 20
8.618807766958234
 30
0.0
  0
VERTEX
  5
6D
330
64
100
AcDbEntity
  8
Layer 1
370
     0
100
AcDbVertex
100
AcDb2dVertex
 10
9.55962951367999
 20
8.618807766958234
 30
0.0
  0
VERTEX
  5
6E
330
64
100
AcDbEntity
  8
Layer 1
370
     0
100
AcDbVertex
100
AcDb2dVertex
 10
9.55962951367999
 20
8.00757852274067
 30
0.0
  0
VERTEX
  5
6F
330
64
100
AcDbEntity
  8
Layer 1
370
     0
100
AcDbVertex
100
AcDb2dVertex
 10
10.73399443741397
 20
8.00757852274067
 30
0.0
  0
VERTEX
  5
70
330
64
100
AcDbEntity
  8
Layer 1
370
     0
100
AcDbVertex
100
AcDb2dVertex
 10
10.73399443741397
 20
7.629168985006159
 30
0.0
  0
VERTEX
  5
71
330
64
100
AcDbEntity
  8
Layer 1
370
     0
100
AcDbVertex
100
AcDb2dVertex
 10
9.13522792087669
 20
7.629168985006159
 30
0.0
  0
SEQEND
  5
72
330
64
100
AcDbEntity
  8
Layer 1
370
     0
  0
HATCH
  5
73
330
52
100
AcDbEntity
  8
Layer 1
 62
     9
420
 13154231
100
AcDbHatch
 10
0.0
 20
0.0
 30
0.0
210
0.0
220
0.0
230
1.0
  2
SOLID
 70
     1
 71
     0
 91
        1
 92
        1
 93
       12
 72
     1
 10
9.13522792087669
 20
7.629168985006159
 11
9.13522792087669
 21
9.874993762443804
 72
     1
 10
9.13522792087669
 20
9.874993762443804
 11
10.69382459755614
 21
9.874993762443804
 72
     1
 10
10.69382459755614
 20
9.874993762443804
 11
10.69382459755614
 21
9.49506838169579
 72
     1
 10
10.69382459755614
 20
9.49506838169579
 11
9.55962951367999
 21
9.49506838169579
 72
     1
 10
9.55962951367999
 20
9.49506838169579
 11
9.55962951367999
 21
8.997217304692745
 72
     1
 10
9.55962951367999
 20
8.997217304692745
 11
10.6149663098764
 21
8.997217304692745
 72
     1
 10
10.6149663098764
 20
8.997217304692745
 11
10.6149663098764
 21
8.618807766958234
 72
     1
 10
10.6149663098764
 20
8.618807766958234
 11
9.55962951367999
 21
8.618807766958234
 72
     1
 10
9.55962951367999
 20
8.618807766958234
 11
9.55962951367999
 21
8.00757852274067
 72
     1
 10
9.55962951367999
 20
8.00757852274067
 11
10.73399443741397
 21
8.00757852274067
 72
     1
 10
10.73399443741397
 20
8.00757852274067
 11
10.73399443741397
 21
7.629168985006159
 72
     1
 10
10.73399443741397
 20
7.629168985006159
 11
9.13522792087669
 21
7.629168985006159
 97
        0
 75
     2
 76
     1
 98
        0
  0
SPLINE
  5
74
330
52
100
AcDbEntity
  8
Layer 1
370
     0
100
AcDbSpline
210
0.0
220
0.0
230
1.0
 70
    11
 71
     3
 72
    65
 73
    61
 74
     0
 42
0.0000000001
 43
0.0000000001
 40
0.0
 40
0.0
 40
0.0
 40
0.0
 40
1.0
 40
1.0
 40
1.0
 40
2.0
 40
2.0
 40
2.0
 40
3.0
 40
3.0
 40
3.0
 40
4.0
 40
4.0
 40
4.0
 40
5.0
 40
5.0
 40
5.0
 40
6.0
 40
6.0
 40
6.0
 40
7.0
 40
7.0
 40
7.0
 40
8.0
 40
8.0
 40
8.0
 40
9.0
 40
9.0
 40
9.0
 40
10.0
 40
10.0
 40
10.0
 40
11.0
 40
11.0
 40
11.0
 40
12.0
 40
12.0
 40
12.0
 40
13.0
 40
13.0
 40
13.0
 40
14.0
 40
14.0
 40
14.0
 40
15.0
 40
15.0
 40
15.0
 40
16.0
 40
16.0
 40
16.0
 40
17.0
 40
17.0
 40
17.0
 40
18.0
 40
18.0
 40
18.0
 40
19.0
 40
19.0
 40
19.0
 40
20.0
 40
20.0
 40
20.0
 40
20.0
 10
11.09100991807154
 20
9.874993762443804
 30
0.0
 10
11.09100991807154
 20
9.874993762443804
 30
0.0
 10
11.51544596185242
 20
9.874993762443804
 30
0.0
 10
11.51544596185242
 20
9.874993762443804
 30
0.0
 10
11.51544596185242
 20
9.874993762443804
 30
0.0
 10
11.51544596185242
 20
8.658633097040271
 30
0.0
 10
11.51544596185242
 20
8.658633097040271
 30
0.0
 10
11.51544596185242
 20
8.465638720639257
 30
0.0
 10
11.52068251044452
 20
8.340512770070088
 30
0.0
 10
11.53122450958389
 20
8.283324147287924
 30
0.0
 10
11.54938017476834
 20
8.191408939105507
 30
0.0
 10
11.59261615163076
 20
8.117614945129967
 30
0.0
 10
11.6610013421263
 20
8.061942165361305
 30
0.0
 10
11.72931763066668
 20
8.006269385592645
 30
0.0
 10
11.82278313284018
 20
7.978467446685895
 30
0.0
 10
11.94129449571406
 20
7.978467446685895
 30
0.0
 10
12.06176956430999
 20
7.978467446685895
 30
0.0
 10
12.15254789023228
 20
8.004753542579142
 30
0.0
 10
12.21373282641368
 20
8.057360185343217
 30
0.0
 10
12.27491776259508
 20
8.109966828107291
 30
0.0
 10
12.31171140665011
 20
8.174527960091494
 30
0.0
 10
12.32414820955635
 20
8.251146934228561
 30
0.0
 10
12.33658501246259
 20
8.32776590836563
 30
0.0
 10
12.34278618842692
 20
8.454890015634417
 30
0.0
 10
12.34278618842692
 20
8.63258815799008
 30
0.0
 10
12.34278618842692
 20
8.63258815799008
 30
0.0
 10
12.34278618842692
 20
9.874993762443804
 30
0.0
 10
12.34278618842692
 20
9.874993762443804
 30
0.0
 10
12.34278618842692
 20
9.874993762443804
 30
0.0
 10
12.7672222322078
 20
9.874993762443804
 30
0.0
 10
12.7672222322078
 20
9.874993762443804
 30
0.0
 10
12.7672222322078
 20
9.874993762443804
 30
0.0
 10
12.7672222322078
 20
8.695426741095302
 30
0.0
 10
12.7672222322078
 20
8.695426741095302
 30
0.0
 10
12.7672222322078
 20
8.42577893957964
 30
0.0
 10
12.75575005667379
 20
8.235299484541938
 30
0.0
 10
12.73280570560576
 20
8.124022826959775
 30
0.0
 10
12.70986135453774
 20
8.012677267422454
 30
0.0
 10
12.66755555406997
 20
7.918695000585259
 30
0.0
 10
12.60592275518003
 20
7.84214492840335
 30
0.0
 10
12.54425550531252
 20
7.765525954266282
 30
0.0
 10
12.4618143159645
 20
7.704478821995202
 30
0.0
 10
12.35856473615839
 20
7.659072433545266
 30
0.0
 10
12.25531515635227
 20
7.613631594117751
 30
0.0
 10
12.12054293206081
 20
7.590893948915205
 30
0.0
 10
11.95421361230642
 20
7.590893948915205
 30
0.0
 10
11.75346776594999
 20
7.590893948915205
 30
0.0
 10
11.60122889602567
 20
7.615664201794949
 30
0.0
 10
11.49753145351102
 20
7.665204707554438
 30
0.0
 10
11.39379956001879
 20
7.714710762336347
 30
0.0
 10
11.31184068435689
 20
7.779030737477492
 30
0.0
 10
11.25162037554771
 20
7.858199083955451
 30
0.0
 10
11.19140006673855
 20
7.937367430433412
 30
0.0
 10
11.15171254056683
 20
8.02032538444513
 30
0.0
 10
11.13259224801014
 20
8.107141847945764
 30
0.0
 10
11.10485921105855
 20
8.235850700183212
 30
0.0
 10
11.09100991807154
 20
8.42577893957964
 30
0.0
 10
11.09100991807154
 20
8.677029919067786
 30
0.0
 10
11.09100991807154
 20
8.677029919067786
 30
0.0
 10
11.09100991807154
 20
9.874993762443804
 30
0.0
 10
11.09100991807154
 20
9.874993762443804
 30
0.0
  0
HATCH
  5
75
330
52
100
AcDbEntity
  8
Layer 1
 62
     9
420
 13154231
100
AcDbHatch
 10
0.0
 20
0.0
 30
0.0
210
0.0
220
0.0
230
1.0
  2
SOLID
 70
     1
 71
     0
 91
        1
 92
        1
 93
        1
 72
     4
 94
        3
 73
     0
 74
     1
 95
       65
 96
       61
 40
0.0
 40
0.0
 40
0.0
 40
0.0
 40
1.0
 40
1.0
 40
1.0
 40
2.0
 40
2.0
 40
2.0
 40
3.0
 40
3.0
 40
3.0
 40
4.0
 40
4.0
 40
4.0
 40
5.0
 40
5.0
 40
5.0
 40
6.0
 40
6.0
 40
6.0
 40
7.0
 40
7.0
 40
7.0
 40
8.0
 40
8.0
 40
8.0
 40
9.0
 40
9.0
 40
9.0
 40
10.0
 40
10.0
 40
10.0
 40
11.0
 40
11.0
 40
11.0
 40
12.0
 40
12.0
 40
12.0
 40
13.0
 40
13.0
 40
13.0
 40
14.0
 40
14.0
 40
14.0
 40
15.0
 40
15.0
 40
15.0
 40
16.0
 40
16.0
 40
16.0
 40
17.0
 40
17.0
 40
17.0
 40
18.0
 40
18.0
 40
18.0
 40
19.0
 40
19.0
 40
19.0
 40
20.0
 40
20.0
 40
20.0
 40
20.0
 10
11.09100991807154
 20
9.874993762443804
 10
11.09100991807154
 20
9.874993762443804
 10
11.51544596185242
 20
9.874993762443804
 10
11.51544596185242
 20
9.874993762443804
 10
11.51544596185242
 20
9.874993762443804
 10
11.51544596185242
 20
8.658633097040271
 10
11.51544596185242
 20
8.658633097040271
 10
11.51544596185242
 20
8.465638720639257
 10
11.52068251044452
 20
8.340512770070088
 10
11.53122450958389
 20
8.283324147287924
 10
11.54938017476834
 20
8.191408939105507
 10
11.59261615163076
 20
8.117614945129967
 10
11.6610013421263
 20
8.061942165361305
 10
11.72931763066668
 20
8.006269385592645
 10
11.82278313284018
 20
7.978467446685895
 10
11.94129449571406
 20
7.978467446685895
 10
12.06176956430999
 20
7.978467446685895
 10
12.15254789023228
 20
8.004753542579142
 10
12.21373282641368
 20
8.057360185343217
 10
12.27491776259508
 20
8.109966828107291
 10
12.31171140665011
 20
8.174527960091494
 10
12.32414820955635
 20
8.251146934228561
 10
12.33658501246259
 20
8.32776590836563
 10
12.34278618842692
 20
8.454890015634417
 10
12.34278618842692
 20
8.63258815799008
 10
12.34278618842692
 20
8.63258815799008
 10
12.34278618842692
 20
9.874993762443804
 10
12.34278618842692
 20
9.874993762443804
 10
12.34278618842692
 20
9.874993762443804
 10
12.7672222322078
 20
9.874993762443804
 10
12.7672222322078
 20
9.874993762443804
 10
12.7672222322078
 20
9.874993762443804
 10
12.7672222322078
 20
8.695426741095302
 10
12.7672222322078
 20
8.695426741095302
 10
12.7672222322078
 20
8.42577893957964
 10
12.75575005667379
 20
8.235299484541938
 10
12.73280570560576
 20
8.124022826959775
 10
12.70986135453774
 20
8.012677267422454
 10
12.66755555406997
 20
7.918695000585259
 10
12.60592275518003
 20
7.84214492840335
 10
12.54425550531252
 20
7.765525954266282
 10
12.4618143159645
 20
7.704478821995202
 10
12.35856473615839
 20
7.659072433545266
 10
12.25531515635227
 20
7.613631594117751
 10
12.12054293206081
 20
7.590893948915205
 10
11.95421361230642
 20
7.590893948915205
 10
11.75346776594999
 20
7.590893948915205
 10
11.60122889602567
 20
7.615664201794949
 10
11.49753145351102
 20
7.665204707554438
 10
11.39379956001879
 20
7.714710762336347
 10
11.31184068435689
 20
7.779030737477492
 10
11.25162037554771
 20
7.858199083955451
 10
11.19140006673855
 20
7.937367430433412
 10
11.15171254056683
 20
8.02032538444513
 10
11.13259224801014
 20
8.107141847945764
 10
11.10485921105855
 20
8.235850700183212
 10
11.09100991807154
 20
8.42577893957964
 10
11.09100991807154
 20
8.677029919067786
 10
11.09100991807154
 20
8.677029919067786
 10
11.09100991807154
 20
9.874993762443804
 10
11.09100991807154
 20
9.874993762443804
 97
        0
 75
     2
 76
     1
 98
        0
  0
POLYLINE
  5
76
330
52
100
AcDbEntity
  8
Layer 1
370
     0
100
AcDb2dPolyline
 66
     1
 10
0.0
 20
0.0
 30
0.0
  0
VERTEX
  5
77
330
76
100
AcDbEntity
  8
Layer 1
370
     0
100
AcDbVertex
100
AcDb2dVertex
 10
13.2146026270567
 20
7.629168985006159
 30
0.0
  0
VERTEX
  5
78
330
76
100
AcDbEntity
  8
Layer 1
370
     0
100
AcDbVertex
100
AcDb2dVertex
 10
13.2146026270567
 20
9.874993762443804
 30
0.0
  0
VERTEX
  5
79
330
76
100
AcDbEntity
  8
Layer 1
370
     0
100
AcDbVertex
100
AcDb2dVertex
 10
14.77319930373615
 20
9.874993762443804
 30
0.0
  0
VERTEX
  5
7A
330
76
100
AcDbEntity
  8
Layer 1
370
     0
100
AcDbVertex
100
AcDb2dVertex
 10
14.77319930373615
 20
9.49506838169579
 30
0.0
  0
VERTEX
  5
7B
330
76
100
AcDbEntity
  8
Layer 1
370
     0
100
AcDbVertex
100
AcDb2dVertex
 10
13.63900421986001
 20
9.49506838169579
 30
0.0
  0
VERTEX
  5
7C
330
76
100
AcDbEntity
  8
Layer 1
370
     0
100
AcDbVertex
100
AcDb2dVertex
 10
13.63900421986001
 20
8.997217304692745
 30
0.0
  0
VERTEX
  5
7D
330
76
100
AcDbEntity
  8
Layer 1
370
     0
100
AcDbVertex
100
AcDb2dVertex
 10
14.69434101605641
 20
8.997217304692745
 30
0.0
  0
VERTEX
  5
7E
330
76
100
AcDbEntity
  8
Layer 1
370
     0
100
AcDbVertex
100
AcDb2dVertex
 10
14.69434101605641
 20
8.618807766958234
 30
0.0
  0
VERTEX
  5
7F
330
76
100
AcDbEntity
  8
Layer 1
370
     0
100
AcDbVertex
100
AcDb2dVertex
 10
13.63900421986001
 20
8.618807766958234
 30
0.0
  0
VERTEX
  5
80
330
76
100
AcDbEntity
  8
Layer 1
370
     0
100
AcDbVertex
100
AcDb2dVertex
 10
13.63900421986001
 20
8.00757852274067
 30
0.0
  0
VERTEX
  5
81
330
76
100
AcDbEntity
  8
Layer 1
370
     0
100
AcDbVertex
100
AcDb2dVertex
 10
14.81336914359399
 20
8.00757852274067
 30
0.0
  0
VERTEX
  5
82
330
76
100
AcDbEntity
  8
Layer 1
370
     0
100
AcDbVertex
100
AcDb2dVertex
 10
14.81336914359399
 20
7.629168985006159
 30
0.0
  0
VERTEX
  5
83
330
76
100
AcDbEntity
  8
Layer 1
370
     0
100
AcDbVertex
100
AcDb2dVertex
 10
13.2146026270567
 20
7.629168985006159
 30
0.0
  0
SEQEND
  5
84
330
76
100
AcDbEntity
  8
Layer 1
370
     0
  0
HATCH
  5
85
330
52
100
AcDbEntity
  8
Layer 1
 62
     9
420
 13154231
100
AcDbHatch
 10
0.0
 20
0.0
 30
0.0
210
0.0
220
0.0
230
1.0
  2
SOLID
 70
     1
 71
     0
 91
        1
 92
        1
 93
       12
 72
     1
 10
13.2146026270567
 20
7.629168985006159
 11
13.2146026270567
 21
9.874993762443804
 72
     1
 10
13.2146026270567
 20
9.874993762443804
 11
14.77319930373615
 21
9.874993762443804
 72
     1
 10
14.77319930373615
 20
9.874993762443804
 11
14.77319930373615
 21
9.49506838169579
 72
     1
 10
14.77319930373615
 20
9.49506838169579
 11
13.63900421986001
 21
9.49506838169579
 72
     1
 10
13.63900421986001
 20
9.49506838169579
 11
13.63900421986001
 21
8.997217304692745
 72
     1
 10
13.63900421986001
 20
8.997217304692745
 11
14.69434101605641
 21
8.997217304692745
 72
     1
 10
14.69434101605641
 20
8.997217304692745
 11
14.69434101605641
 21
8.618807766958234
 72
     1
 10
14.69434101605641
 20
8.618807766958234
 11
13.63900421986001
 21
8.618807766958234
 72
     1
 10
13.63900421986001
 20
8.618807766958234
 11
13.63900421986001
 21
8.00757852274067
 72
     1
 10
13.63900421986001
 20
8.00757852274067
 11
14.81336914359399
 21
8.00757852274067
 72
     1
 10
14.81336914359399
 20
8.00757852274067
 11
14.81336914359399
 21
7.629168985006159
 72
     1
 10
14.81336914359399
 20
7.629168985006159
 11
13.2146026270567
 21
7.629168985006159
 97
        0
 75
     2
 76
     1
 98
        0
  0
SPLINE
  5
86
330
52
100
AcDbEntity
  8
Layer 1
370
     0
100
AcDbSpline
210
0.0
220
0.0
230
1.0
 70
    11
 71
     3
 72
    59
 73
    55
 74
     0
 42
0.0000000001
 43
0.0000000001
 40
0.0
 40
0.0
 40
0.0
 40
0.0
 40
1.0
 40
1.0
 40
1.0
 40
2.0
 40
2.0
 40
2.0
 40
3.0
 40
3.0
 40
3.0
 40
4.0
 40
4.0
 40
4.0
 40
5.0
 40
5.0
 40
5.0
 40
6.0
 40
6.0
 40
6.0
 40
7.0
 40
7.0
 40
7.0
 40
8.0
 40
8.0
 40
8.0
 40
9.0
 40
9.0
 40
9.0
 40
10.0
 40
10.0
 40
10.0
 40
11.0
 40
11.0
 40
11.0
 40
12.0
 40
12.0
 40
12.0
 40
13.0
 40
13.0
 40
13.0
 40
14.0
 40
14.0
 40
14.0
 40
15.0
 40
15.0
 40
15.0
 40
16.0
 40
16.0
 40
16.0
 40
17.0
 40
17.0
 40
17.0
 40
18.0
 40
18.0
 40
18.0
 40
18.0
 10
15.17469099644901
 20
7.629168985006159
 30
0.0
 10
15.17469099644901
 20
7.629168985006159
 30
0.0
 10
15.17469099644901
 20
9.874993762443804
 30
0.0
 10
15.17469099644901
 20
9.874993762443804
 30
0.0
 10
15.17469099644901
 20
9.874993762443804
 30
0.0
 10
16.06800484508847
 20
9.874993762443804
 30
0.0
 10
16.06800484508847
 20
9.874993762443804
 30
0.0
 10
16.29262521890757
 20
9.874993762443804
 30
0.0
 10
16.4558539506798
 20
9.854805489582148
 30
0.0
 10
16.55769104040515
 20
9.814463394836418
 30
0.0
 10
16.65949367915292
 20
9.774121300090686
 30
0.0
 10
16.74097024112871
 20
9.702359913792344
 30
0.0
 10
16.80215517731011
 20
9.59924813789655
 30
0.0
 10
16.86330566251393
 20
9.496067460045598
 30
0.0
 10
16.89393258158221
 20
9.37810731281299
 30
0.0
 10
16.89393258158221
 20
9.245367696198725
 30
0.0
 10
16.89393258158221
 20
9.07686796485682
 30
0.0
 10
16.84752711478247
 20
8.937686015435167
 30
0.0
 10
16.75481953411571
 20
8.827925200866508
 30
0.0
 10
16.66211195344897
 20
8.718095484342689
 30
0.0
 10
16.52348121966859
 20
8.648917921362818
 30
0.0
 10
16.33899623472974
 20
8.620323609971736
 30
0.0
 10
16.43077363900184
 20
8.563134987189573
 30
0.0
 10
16.50653133869942
 20
8.50033085506193
 30
0.0
 10
16.56626933382247
 20
8.431911213588812
 30
0.0
 10
16.62600732894553
 20
8.363457121138113
 30
0.0
 10
16.70655371452667
 20
8.241948523214804
 30
0.0
 10
16.80787403958833
 20
8.067316517863727
 30
0.0
 10
16.80787403958833
 20
8.067316517863727
 30
0.0
 10
17.06456827353405
 20
7.629168985006159
 30
0.0
 10
17.06456827353405
 20
7.629168985006159
 30
0.0
 10
17.06456827353405
 20
7.629168985006159
 30
0.0
 10
16.55696756987598
 20
7.629168985006159
 30
0.0
 10
16.55696756987598
 20
7.629168985006159
 30
0.0
 10
16.55696756987598
 20
7.629168985006159
 30
0.0
 10
16.25011271257433
 20
8.117890552950604
 30
0.0
 10
16.25011271257433
 20
8.117890552950604
 30
0.0
 10
16.14114427049
 20
8.292488107324102
 30
0.0
 10
16.06655790403013
 20
8.402524529713398
 30
0.0
 10
16.02642251514987
 20
8.447999820118493
 30
0.0
 10
15.98628712626962
 20
8.493406208568429
 30
0.0
 10
15.9437401689588
 20
8.524618794255561
 30
0.0
 10
15.89881609419498
 20
8.541430871314414
 30
0.0
 10
15.85385756845358
 20
8.558311850328426
 30
0.0
 10
15.78264739779651
 20
8.566717888857852
 30
0.0
 10
15.68515113124619
 20
8.566717888857852
 30
0.0
 10
15.68515113124619
 20
8.566717888857852
 30
0.0
 10
15.59912704022989
 20
8.566717888857852
 30
0.0
 10
15.59912704022989
 20
8.566717888857852
 30
0.0
 10
15.59912704022989
 20
8.566717888857852
 30
0.0
 10
15.59912704022989
 20
7.629168985006159
 30
0.0
 10
15.59912704022989
 20
7.629168985006159
 30
0.0
 10
15.59912704022989
 20
7.629168985006159
 30
0.0
 10
15.17469099644901
 20
7.629168985006159
 30
0.0
 10
15.17469099644901
 20
7.629168985006159
 30
0.0
  0
SPLINE
  5
87
330
52
100
AcDbEntity
  8
Layer 1
370
     0
100
AcDbSpline
210
0.0
220
0.0
230
1.0
 70
    11
 71
     3
 72
    32
 73
    28
 74
     0
 42
0.0000000001
 43
0.0000000001
 40
0.0
 40
0.0
 40
0.0
 40
0.0
 40
1.0
 40
1.0
 40
1.0
 40
2.0
 40
2.0
 40
2.0
 40
3.0
 40
3.0
 40
3.0
 40
4.0
 40
4.0
 40
4.0
 40
5.0
 40
5.0
 40
5.0
 40
6.0
 40
6.0
 40
6.0
 40
7.0
 40
7.0
 40
7.0
 40
8.0
 40
8.0
 40
8.0
 40
9.0
 40
9.0
 40
9.0
 40
9.0
 10
15.59912704022989
 20
8.925214761551345
 30
0.0
 10
15.59912704022989
 20
8.925214761551345
 30
0.0
 10
15.9131477008681
 20
8.925214761551345
 30
0.0
 10
15.9131477008681
 20
8.925214761551345
 30
0.0
 10
16.11675297836363
 20
8.925214761551345
 30
0.0
 10
16.24387708563242
 20
8.934378721587525
 30
0.0
 10
16.29455447365203
 20
8.95277554361504
 30
0.0
 10
16.34519741069407
 20
8.971172365642555
 30
0.0
 10
16.38488493686579
 20
9.002798363060643
 30
0.0
 10
16.41358260118961
 20
9.047756888802043
 30
0.0
 10
16.44224581453585
 20
9.092680963565863
 30
0.0
 10
16.45657742120897
 20
9.148870507998218
 30
0.0
 10
16.45657742120897
 20
9.21625662014395
 30
0.0
 10
16.45657742120897
 20
9.291842064953629
 30
0.0
 10
16.43769828549534
 20
9.35282029526955
 30
0.0
 10
16.39994001406808
 20
9.399329115002034
 30
0.0
 10
16.36218174264082
 20
9.445769032779356
 30
0.0
 10
16.30888608032516
 20
9.47515571665477
 30
0.0
 10
16.24005302712108
 20
9.487385813695534
 30
0.0
 10
16.20567095149662
 20
9.492484558377317
 30
0.0
 10
16.10242137169051
 20
9.49506838169579
 30
0.0
 10
15.93033873868032
 20
9.49506838169579
 30
0.0
 10
15.93033873868032
 20
9.49506838169579
 30
0.0
 10
15.59912704022989
 20
9.49506838169579
 30
0.0
 10
15.59912704022989
 20
9.49506838169579
 30
0.0
 10
15.59912704022989
 20
9.49506838169579
 30
0.0
 10
15.59912704022989
 20
8.925214761551345
 30
0.0
 10
15.59912704022989
 20
8.925214761551345
 30
0.0
  0
HATCH
  5
88
330
52
100
AcDbEntity
  8
Layer 1
 62
     9
420
 13154231
100
AcDbHatch
 10
0.0
 20
0.0
 30
0.0
210
0.0
220
0.0
230
1.0
  2
SOLID
 70
     1
 71
     0
 91
        2
 92
        1
 93
        1
 72
     4
 94
        3
 73
     0
 74
     1
 95
       59
 96
       55
 40
0.0
 40
0.0
 40
0.0
 40
0.0
 40
1.0
 40
1.0
 40
1.0
 40
2.0
 40
2.0
 40
2.0
 40
3.0
 40
3.0
 40
3.0
 40
4.0
 40
4.0
 40
4.0
 40
5.0
 40
5.0
 40
5.0
 40
6.0
 40
6.0
 40
6.0
 40
7.0
 40
7.0
 40
7.0
 40
8.0
 40
8.0
 40
8.0
 40
9.0
 40
9.0
 40
9.0
 40
10.0
 40
10.0
 40
10.0
 40
11.0
 40
11.0
 40
11.0
 40
12.0
 40
12.0
 40
12.0
 40
13.0
 40
13.0
 40
13.0
 40
14.0
 40
14.0
 40
14.0
 40
15.0
 40
15.0
 40
15.0
 40
16.0
 40
16.0
 40
16.0
 40
17.0
 40
17.0
 40
17.0
 40
18.0
 40
18.0
 40
18.0
 40
18.0
 10
15.17469099644901
 20
7.629168985006159
 10
15.17469099644901
 20
7.629168985006159
 10
15.17469099644901
 20
9.874993762443804
 10
15.17469099644901
 20
9.874993762443804
 10
15.17469099644901
 20
9.874993762443804
 10
16.06800484508847
 20
9.874993762443804
 10
16.06800484508847
 20
9.874993762443804
 10
16.29262521890757
 20
9.874993762443804
 10
16.4558539506798
 20
9.854805489582148
 10
16.55769104040515
 20
9.814463394836418
 10
16.65949367915292
 20
9.774121300090686
 10
16.74097024112871
 20
9.702359913792344
 10
16.80215517731011
 20
9.59924813789655
 10
16.86330566251393
 20
9.496067460045598
 10
16.89393258158221
 20
9.37810731281299
 10
16.89393258158221
 20
9.245367696198725
 10
16.89393258158221
 20
9.07686796485682
 10
16.84752711478247
 20
8.937686015435167
 10
16.75481953411571
 20
8.827925200866508
 10
16.66211195344897
 20
8.718095484342689
 10
16.52348121966859
 20
8.648917921362818
 10
16.33899623472974
 20
8.620323609971736
 10
16.43077363900184
 20
8.563134987189573
 10
16.50653133869942
 20
8.50033085506193
 10
16.56626933382247
 20
8.431911213588812
 10
16.62600732894553
 20
8.363457121138113
 10
16.70655371452667
 20
8.241948523214804
 10
16.80787403958833
 20
8.067316517863727
 10
16.80787403958833
 20
8.067316517863727
 10
17.06456827353405
 20
7.629168985006159
 10
17.06456827353405
 20
7.629168985006159
 10
17.06456827353405
 20
7.629168985006159
 10
16.55696756987598
 20
7.629168985006159
 10
16.55696756987598
 20
7.629168985006159
 10
16.55696756987598
 20
7.629168985006159
 10
16.25011271257433
 20
8.117890552950604
 10
16.25011271257433
 20
8.117890552950604
 10
16.14114427049
 20
8.292488107324102
 10
16.06655790403013
 20
8.402524529713398
 10
16.02642251514987
 20
8.447999820118493
 10
15.98628712626962
 20
8.493406208568429
 10
15.9437401689588
 20
8.524618794255561
 10
15.89881609419498
 20
8.541430871314414
 10
15.85385756845358
 20
8.558311850328426
 10
15.78264739779651
 20
8.566717888857852
 10
15.68515113124619
 20
8.566717888857852
 10
15.68515113124619
 20
8.566717888857852
 10
15.59912704022989
 20
8.566717888857852
 10
15.59912704022989
 20
8.566717888857852
 10
15.59912704022989
 20
8.566717888857852
 10
15.59912704022989
 20
7.629168985006159
 10
15.59912704022989
 20
7.629168985006159
 10
15.59912704022989
 20
7.629168985006159
 10
15.17469099644901
 20
7.629168985006159
 10
15.17469099644901
 20
7.629168985006159
 97
        0
 92
        1
 93
        1
 72
     4
 94
        3
 73
     0
 74
     1
 95
       32
 96
       28
 40
0.0
 40
0.0
 40
0.0
 40
0.0
 40
1.0
 40
1.0
 40
1.0
 40
2.0
 40
2.0
 40
2.0
 40
3.0
 40
3.0
 40
3.0
 40
4.0
 40
4.0
 40
4.0
 40
5.0
 40
5.0
 40
5.0
 40
6.0
 40
6.0
 40
6.0
 40
7.0
 40
7.0
 40
7.0
 40
8.0
 40
8.0
 40
8.0
 40
9.0
 40
9.0
 40
9.0
 40
9.0
 10
15.59912704022989
 20
8.925214761551345
 10
15.59912704022989
 20
8.925214761551345
 10
15.9131477008681
 20
8.925214761551345
 10
15.9131477008681
 20
8.925214761551345
 10
16.11675297836363
 20
8.925214761551345
 10
16.24387708563242
 20
8.934378721587525
 10
16.29455447365203
 20
8.95277554361504
 10
16.34519741069407
 20
8.971172365642555
 10
16.38488493686579
 20
9.002798363060643
 10
16.41358260118961
 20
9.047756888802043
 10
16.44224581453585
 20
9.092680963565863
 10
16.45657742120897
 20
9.148870507998218
 10
16.45657742120897
 20
9.21625662014395
 10
16.45657742120897
 20
9.291842064953629
 10
16.43769828549534
 20
9.35282029526955
 10
16.39994001406808
 20
9.399329115002034
 10
16.36218174264082
 20
9.445769032779356
 10
16.30888608032516
 20
9.47515571665477
 10
16.24005302712108
 20
9.487385813695534
 10
16.20567095149662
 20
9.492484558377317
 10
16.10242137169051
 20
9.49506838169579
 10
15.93033873868032
 20
9.49506838169579
 10
15.93033873868032
 20
9.49506838169579
 10
15.59912704022989
 20
9.49506838169579
 10
15.59912704022989
 20
9.49506838169579
 10
15.59912704022989
 20
9.49506838169579
 10
15.59912704022989
 20
8.925214761551345
 10
15.59912704022989
 20
8.925214761551345
 97
        0
 75
     2
 76
     1
 98
        0
  0
POLYLINE
  5
89
330
52
100
AcDbEntity
  8
Layer 1
370
     0
100
AcDb2dPolyline
 66
     1
 10
0.0
 20
0.0
 30
0.0
  0
VERTEX
  5
8A
330
89
100
AcDbEntity
  8
Layer 1
370
     0
100
AcDbVertex
100
AcDb2dVertex
 10
17.53919939164843
 20
7.629168985006159
 30
0.0
  0
VERTEX
  5
8B
330
89
100
AcDbEntity
  8
Layer 1
370
     0
100
AcDbVertex
100
AcDb2dVertex
 10
17.03731755026858
 20
9.874993762443804
 30
0.0
  0
VERTEX
  5
8C
330
89
100
AcDbEntity
  8
Layer 1
370
     0
100
AcDbVertex
100
AcDb2dVertex
 10
17.47177882852512
 20
9.874993762443804
 30
0.0
  0
VERTEX
  5
8D
330
89
100
AcDbEntity
  8
Layer 1
370
     0
100
AcDbVertex
100
AcDb2dVertex
 10
17.78869337128002
 20
8.332347888383719
 30
0.0
  0
VERTEX
  5
8E
330
89
100
AcDbEntity
  8
Layer 1
370
     0
100
AcDbVertex
100
AcDb2dVertex
 10
18.17295957520307
 20
9.874993762443804
 30
0.0
  0
VERTEX
  5
8F
330
89
100
AcDbEntity
  8
Layer 1
370
     0
100
AcDbVertex
100
AcDb2dVertex
 10
18.67770084772203
 20
9.874993762443804
 30
0.0
  0
VERTEX
  5
90
330
89
100
AcDbEntity
  8
Layer 1
370
     0
100
AcDbVertex
100
AcDb2dVertex
 10
19.04618850391362
 20
8.306302949333528
 30
0.0
  0
VERTEX
  5
91
330
89
100
AcDbEntity
  8
Layer 1
370
     0
100
AcDbVertex
100
AcDb2dVertex
 10
19.36882190894673
 20
9.874993762443804
 30
0.0
  0
VERTEX
  5
92
330
89
100
AcDbEntity
  8
Layer 1
370
     0
100
AcDbVertex
100
AcDb2dVertex
 10
19.79611738386672
 20
9.874993762443804
 30
0.0
  0
VERTEX
  5
93
330
89
100
AcDbEntity
  8
Layer 1
370
     0
100
AcDbVertex
100
AcDb2dVertex
 10
19.28565724906953
 20
7.629168985006159
 30
0.0
  0
VERTEX
  5
94
330
89
100
AcDbEntity
  8
Layer 1
370
     0
100
AcDbVertex
100
AcDb2dVertex
 10
18.83541742308152
 20
7.629168985006159
 30
0.0
  0
VERTEX
  5
95
330
89
100
AcDbEntity
  8
Layer 1
370
     0
100
AcDbVertex
100
AcDb2dVertex
 10
18.41673469255644
 20
9.308171828326367
 30
0.0
  0
VERTEX
  5
96
330
89
100
AcDbEntity
  8
Layer 1
370
     0
100
AcDbVertex
100
AcDb2dVertex
 10
17.99946445211211
 20
7.629168985006159
 30
0.0
  0
VERTEX
  5
97
330
89
100
AcDbEntity
  8
Layer 1
370
     0
100
AcDbVertex
100
AcDb2dVertex
 10
17.53919939164843
 20
7.629168985006159
 30
0.0
  0
SEQEND
  5
98
330
89
100
AcDbEntity
  8
Layer 1
370
     0
  0
HATCH
  5
99
330
52
100
AcDbEntity
  8
Layer 1
 62
     9
420
 13154231
100
AcDbHatch
 10
0.0
 20
0.0
 30
0.0
210
0.0
220
0.0
230
1.0
  2
SOLID
 70
     1
 71
     0
 91
        1
 92
        1
 93
       13
 72
     1
 10
17.53919939164843
 20
7.629168985006159
 11
17.03731755026858
 21
9.874993762443804
 72
     1
 10
17.03731755026858
 20
9.874993762443804
 11
17.47177882852512
 21
9.874993762443804
 72
     1
 10
17.47177882852512
 20
9.874993762443804
 11
17.78869337128002
 21
8.332347888383719
 72
     1
 10
17.78869337128002
 20
8.332347888383719
 11
18.17295957520307
 21
9.874993762443804
 72
     1
 10
18.17295957520307
 20
9.874993762443804
 11
18.67770084772203
 21
9.874993762443804
 72
     1
 10
18.67770084772203
 20
9.874993762443804
 11
19.04618850391362
 21
8.306302949333528
 72
     1
 10
19.04618850391362
 20
8.306302949333528
 11
19.36882190894673
 21
9.874993762443804
 72
     1
 10
19.36882190894673
 20
9.874993762443804
 11
19.79611738386672
 21
9.874993762443804
 72
     1
 10
19.79611738386672
 20
9.874993762443804
 11
19.28565724906953
 21
7.629168985006159
 72
     1
 10
19.28565724906953
 20
7.629168985006159
 11
18.83541742308152
 21
7.629168985006159
 72
     1
 10
18.83541742308152
 20
7.629168985006159
 11
18.41673469255644
 21
9.308171828326367
 72
     1
 10
18.41673469255644
 20
9.308171828326367
 11
17.99946445211211
 21
7.629168985006159
 72
     1
 10
17.99946445211211
 20
7.629168985006159
 11
17.53919939164843
 21
7.629168985006159
 97
        0
 75
     2
 76
     1
 98
        0
  0
POLYLINE
  5
9A
330
52
100
AcDbEntity
  8
Layer 1
370
     0
100
AcDb2dPolyline
 66
     1
 10
0.0
 20
0.0
 30
0.0
  0
VERTEX
  5
9B
330
9A
100
AcDbEntity
  8
Layer 1
370
     0
100
AcDbVertex
100
AcDb2dVertex
 10
20.01264177795461
 20
7.629168985006159
 30
0.0
  0
VERTEX
  5
9C
330
9A
100
AcDbEntity
  8
Layer 1
370
     0
100
AcDbVertex
100
AcDb2dVertex
 10
20.01264177795461
 20
9.874993762443804
 30
0.0
  0
VERTEX
  5
9D
330
9A
100
AcDbEntity
  8
Layer 1
370
     0
100
AcDbVertex
100
AcDb2dVertex
 10
21.57123845463406
 20
9.874993762443804
 30
0.0
  0
VERTEX
  5
9E
330
9A
100
AcDbEntity
  8
Layer 1
370
     0
100
AcDbVertex
100
AcDb2dVertex
 10
21.57123845463406
 20
9.49506838169579
 30
0.0
  0
VERTEX
  5
9F
330
9A
100
AcDbEntity
  8
Layer 1
370
     0
100
AcDbVertex
100
AcDb2dVertex
 10
20.43704337075791
 20
9.49506838169579
 30
0.0
  0
VERTEX
  5
A0
330
9A
100
AcDbEntity
  8
Layer 1
370
     0
100
AcDbVertex
100
AcDb2dVertex
 10
20.43704337075791
 20
8.997217304692745
 30
0.0
  0
VERTEX
  5
A1
330
9A
100
AcDbEntity
  8
Layer 1
370
     0
100
AcDbVertex
100
AcDb2dVertex
 10
21.49238016695431
 20
8.997217304692745
 30
0.0
  0
VERTEX
  5
A2
330
9A
100
AcDbEntity
  8
Layer 1
370
     0
100
AcDbVertex
100
AcDb2dVertex
 10
21.49238016695431
 20
8.618807766958234
 30
0.0
  0
VERTEX
  5
A3
330
9A
100
AcDbEntity
  8
Layer 1
370
     0
100
AcDbVertex
100
AcDb2dVertex
 10
20.43704337075791
 20
8.618807766958234
 30
0.0
  0
VERTEX
  5
A4
330
9A
100
AcDbEntity
  8
Layer 1
370
     0
100
AcDbVertex
100
AcDb2dVertex
 10
20.43704337075791
 20
8.00757852274067
 30
0.0
  0
VERTEX
  5
A5
330
9A
100
AcDbEntity
  8
Layer 1
370
     0
100
AcDbVertex
100
AcDb2dVertex
 10
21.61140829449189
 20
8.00757852274067
 30
0.0
  0
VERTEX
  5
A6
330
9A
100
AcDbEntity
  8
Layer 1
370
     0
100
AcDbVertex
100
AcDb2dVertex
 10
21.61140829449189
 20
7.629168985006159
 30
0.0
  0
VERTEX
  5
A7
330
9A
100
AcDbEntity
  8
Layer 1
370
     0
100
AcDbVertex
100
AcDb2dVertex
 10
20.01264177795461
 20
7.629168985006159
 30
0.0
  0
SEQEND
  5
A8
330
9A
100
AcDbEntity
  8
Layer 1
370
     0
  0
HATCH
  5
A9
330
52
100
AcDbEntity
  8
Layer 1
 62
     9
420
 13154231
100
AcDbHatch
 10
0.0
 20
0.0
 30
0.0
210
0.0
220
0.0
230
1.0
  2
SOLID
 70
     1
 71
     0
 91
        1
 92
        1
 93
       12
 72
     1
 10
20.01264177795461
 20
7.629168985006159
 11
20.01264177795461
 21
9.874993762443804
 72
     1
 10
20.01264177795461
 20
9.874993762443804
 11
21.57123845463406
 21
9.874993762443804
 72
     1
 10
21.57123845463406
 20
9.874993762443804
 11
21.57123845463406
 21
9.49506838169579
 72
     1
 10
21.57123845463406
 20
9.49506838169579
 11
20.43704337075791
 21
9.49506838169579
 72
     1
 10
20.43704337075791
 20
9.49506838169579
 11
20.43704337075791
 21
8.997217304692745
 72
     1
 10
20.43704337075791
 20
8.997217304692745
 11
21.49238016695431
 21
8.997217304692745
 72
     1
 10
21.49238016695431
 20
8.997217304692745
 11
21.49238016695431
 21
8.618807766958234
 72
     1
 10
21.49238016695431
 20
8.618807766958234
 11
20.43704337075791
 21
8.618807766958234
 72
     1
 10
20.43704337075791
 20
8.618807766958234
 11
20.43704337075791
 21
8.00757852274067
 72
     1
 10
20.43704337075791
 20
8.00757852274067
 11
21.61140829449189
 21
8.00757852274067
 72
     1
 10
21.61140829449189
 20
8.00757852274067
 11
21.61140829449189
 21
7.629168985006159
 72
     1
 10
21.61140829449189
 20
7.629168985006159
 11
20.01264177795461
 21
7.629168985006159
 97
        0
 75
     2
 76
     1
 98
        0
  0
POLYLINE
  5
AA
330
52
100
AcDbEntity
  8
Layer 1
370
     0
100
AcDb2dPolyline
 66
     1
 10
0.0
 20
0.0
 30
0.0
  0
VERTEX
  5
AB
330
AA
100
AcDbEntity
  8
Layer 1
370
     0
100
AcDbVertex
100
AcDb2dVertex
 10
21.97273014734691
 20
7.629168985006159
 30
0.0
  0
VERTEX
  5
AC
330
AA
100
AcDbEntity
  8
Layer 1
370
     0
100
AcDbVertex
100
AcDb2dVertex
 10
21.97273014734691
 20
9.874993762443804
 30
0.0
  0
VERTEX
  5
AD
330
AA
100
AcDbEntity
  8
Layer 1
370
     0
100
AcDbVertex
100
AcDb2dVertex
 10
22.39716619112779
 20
9.874993762443804
 30
0.0
  0
VERTEX
  5
AE
330
AA
100
AcDbEntity
  8
Layer 1
370
     0
100
AcDbVertex
100
AcDb2dVertex
 10
22.39716619112779
 20
8.991085030683573
 30
0.0
  0
VERTEX
  5
AF
330
AA
100
AcDbEntity
  8
Layer 1
370
     0
100
AcDbVertex
100
AcDb2dVertex
 10
23.22881278989974
 20
8.991085030683573
 30
0.0
  0
VERTEX
  5
B0
330
AA
100
AcDbEntity
  8
Layer 1
370
     0
100
AcDbVertex
100
AcDb2dVertex
 10
23.22881278989974
 20
9.874993762443804
 30
0.0
  0
VERTEX
  5
B1
330
AA
100
AcDbEntity
  8
Layer 1
370
     0
100
AcDbVertex
100
AcDb2dVertex
 10
23.65324883368062
 20
9.874993762443804
 30
0.0
  0
VERTEX
  5
B2
330
AA
100
AcDbEntity
  8
Layer 1
370
     0
100
AcDbVertex
100
AcDb2dVertex
 10
23.65324883368062
 20
7.629168985006159
 30
0.0
  0
VERTEX
  5
B3
330
AA
100
AcDbEntity
  8
Layer 1
370
     0
100
AcDbVertex
100
AcDb2dVertex
 10
23.22881278989974
 20
7.629168985006159
 30
0.0
  0
VERTEX
  5
B4
330
AA
100
AcDbEntity
  8
Layer 1
370
     0
100
AcDbVertex
100
AcDb2dVertex
 10
23.22881278989974
 20
8.611159649935558
 30
0.0
  0
VERTEX
  5
B5
330
AA
100
AcDbEntity
  8
Layer 1
370
     0
100
AcDbVertex
100
AcDb2dVertex
 10
22.39716619112779
 20
8.611159649935558
 30
0.0
  0
VERTEX
  5
B6
330
AA
100
AcDbEntity
  8
Layer 1
370
     0
100
AcDbVertex
100
AcDb2dVertex
 10
22.39716619112779
 20
7.629168985006159
 30
0.0
  0
VERTEX
  5
B7
330
AA
100
AcDbEntity
  8
Layer 1
370
     0
100
AcDbVertex
100
AcDb2dVertex
 10
21.97273014734691
 20
7.629168985006159
 30
0.0
  0
SEQEND
  5
B8
330
AA
100
AcDbEntity
  8
Layer 1
370
     0
  0
HATCH
  5
B9
330
52
100
AcDbEntity
  8
Layer 1
 62
     9
420
 13154231
100
AcDbHatch
 10
0.0
 20
0.0
 30
0.0
210
0.0
220
0.0
230
1.0
  2
SOLID
 70
     1
 71
     0
 91
        1
 92
        1
 93
       12
 72
     1
 10
21.97273014734691
 20
7.629168985006159
 11
21.97273014734691
 21
9.874993762443804
 72
     1
 10
21.97273014734691
 20
9.874993762443804
 11
22.39716619112779
 21
9.874993762443804
 72
     1
 10
22.39716619112779
 20
9.874993762443804
 11
22.39716619112779
 21
8.991085030683573
 72
     1
 10
22.39716619112779
 20
8.991085030683573
 11
23.22881278989974
 21
8.991085030683573
 72
     1
 10
23.22881278989974
 20
8.991085030683573
 11
23.22881278989974
 21
9.874993762443804
 72
     1
 10
23.22881278989974
 20
9.874993762443804
 11
23.65324883368062
 21
9.874993762443804
 72
     1
 10
23.65324883368062
 20
9.874993762443804
 11
23.65324883368062
 21
7.629168985006159
 72
     1
 10
23.65324883368062
 20
7.629168985006159
 11
23.22881278989974
 21
7.629168985006159
 72
     1
 10
23.22881278989974
 20
7.629168985006159
 11
23.22881278989974
 21
8.611159649935558
 72
     1
 10
23.22881278989974
 20
8.611159649935558
 11
22.39716619112779
 21
8.611159649935558
 72
     1
 10
22.39716619112779
 20
8.611159649935558
 11
22.39716619112779
 21
7.629168985006159
 72
     1
 10
22.39716619112779
 20
7.629168985006159
 11
21.97273014734691
 21
7.629168985006159
 97
        0
 75
     2
 76
     1
 98
        0
  0
SPLINE
  5
BA
330
52
100
AcDbEntity
  8
Layer 1
370
     0
100
AcDbSpline
210
0.0
220
0.0
230
1.0
 70
    11
 71
     3
 72
    59
 73
    55
 74
     0
 42
0.0000000001
 43
0.0000000001
 40
0.0
 40
0.0
 40
0.0
 40
0.0
 40
1.0
 40
1.0
 40
1.0
 40
2.0
 40
2.0
 40
2.0
 40
3.0
 40
3.0
 40
3.0
 40
4.0
 40
4.0
 40
4.0
 40
5.0
 40
5.0
 40
5.0
 40
6.0
 40
6.0
 40
6.0
 40
7.0
 40
7.0
 40
7.0
 40
8.0
 40
8.0
 40
8.0
 40
9.0
 40
9.0
 40
9.0
 40
10.0
 40
10.0
 40
10.0
 40
11.0
 40
11.0
 40
11.0
 40
12.0
 40
12.0
 40
12.0
 40
13.0
 40
13.0
 40
13.0
 40
14.0
 40
14.0
 40
14.0
 40
15.0
 40
15.0
 40
15.0
 40
16.0
 40
16.0
 40
16.0
 40
17.0
 40
17.0
 40
17.0
 40
18.0
 40
18.0
 40
18.0
 40
18.0
 10
24.09346342519297
 20
7.629168985006159
 30
0.0
 10
24.09346342519297
 20
7.629168985006159
 30
0.0
 10
24.09346342519297
 20
9.874993762443804
 30
0.0
 10
24.09346342519297
 20
9.874993762443804
 30
0.0
 10
24.09346342519297
 20
9.874993762443804
 30
0.0
 10
24.98677727383243
 20
9.874993762443804
 30
0.0
 10
24.98677727383243
 20
9.874993762443804
 30
0.0
 10
25.21139764765153
 20
9.874993762443804
 30
0.0
 10
25.37462637942376
 20
9.854805489582148
 30
0.0
 10
25.47646346914911
 20
9.814463394836418
 30
0.0
 10
25.57826610789687
 20
9.774121300090686
 30
0.0
 10
25.65974266987267
 20
9.702359913792344
 30
0.0
 10
25.72092760605407
 20
9.59924813789655
 30
0.0
 10
25.78207809125789
 20
9.496067460045598
 30
0.0
 10
25.81270501032617
 20
9.37810731281299
 30
0.0
 10
25.81270501032617
 20
9.245367696198725
 30
0.0
 10
25.81270501032617
 20
9.07686796485682
 30
0.0
 10
25.76629954352642
 20
8.937686015435167
 30
0.0
 10
25.67359196285967
 20
8.827925200866508
 30
0.0
 10
25.58088438219292
 20
8.718095484342689
 30
0.0
 10
25.44225364841255
 20
8.648917921362818
 30
0.0
 10
25.2577686634737
 20
8.620323609971736
 30
0.0
 10
25.3495460677458
 20
8.563134987189573
 30
0.0
 10
25.42530376744337
 20
8.50033085506193
 30
0.0
 10
25.48504176256643
 20
8.431911213588812
 30
0.0
 10
25.54477975768949
 20
8.363457121138113
 30
0.0
 10
25.62532614327063
 20
8.241948523214804
 30
0.0
 10
25.72664646833228
 20
8.067316517863727
 30
0.0
 10
25.72664646833228
 20
8.067316517863727
 30
0.0
 10
25.98334070227801
 20
7.629168985006159
 30
0.0
 10
25.98334070227801
 20
7.629168985006159
 30
0.0
 10
25.98334070227801
 20
7.629168985006159
 30
0.0
 10
25.47573999861993
 20
7.629168985006159
 30
0.0
 10
25.47573999861993
 20
7.629168985006159
 30
0.0
 10
25.47573999861993
 20
7.629168985006159
 30
0.0
 10
25.16888514131828
 20
8.117890552950604
 30
0.0
 10
25.16888514131828
 20
8.117890552950604
 30
0.0
 10
25.05991669923396
 20
8.292488107324102
 30
0.0
 10
24.98533033277409
 20
8.402524529713398
 30
0.0
 10
24.94519494389383
 20
8.447999820118493
 30
0.0
 10
24.90505955501358
 20
8.493406208568429
 30
0.0
 10
24.86251259770275
 20
8.524618794255561
 30
0.0
 10
24.81758852293893
 20
8.541430871314414
 30
0.0
 10
24.77262999719753
 20
8.558311850328426
 30
0.0
 10
24.70141982654047
 20
8.566717888857852
 30
0.0
 10
24.60392355999015
 20
8.566717888857852
 30
0.0
 10
24.60392355999015
 20
8.566717888857852
 30
0.0
 10
24.51789946897384
 20
8.566717888857852
 30
0.0
 10
24.51789946897384
 20
8.566717888857852
 30
0.0
 10
24.51789946897384
 20
8.566717888857852
 30
0.0
 10
24.51789946897384
 20
7.629168985006159
 30
0.0
 10
24.51789946897384
 20
7.629168985006159
 30
0.0
 10
24.51789946897384
 20
7.629168985006159
 30
0.0
 10
24.09346342519297
 20
7.629168985006159
 30
0.0
 10
24.09346342519297
 20
7.629168985006159
 30
0.0
  0
SPLINE
  5
BB
330
52
100
AcDbEntity
  8
Layer 1
370
     0
100
AcDbSpline
210
0.0
220
0.0
230
1.0
 70
    11
 71
     3
 72
    32
 73
    28
 74
     0
 42
0.0000000001
 43
0.0000000001
 40
0.0
 40
0.0
 40
0.0
 40
0.0
 40
1.0
 40
1.0
 40
1.0
 40
2.0
 40
2.0
 40
2.0
 40
3.0
 40
3.0
 40
3.0
 40
4.0
 40
4.0
 40
4.0
 40
5.0
 40
5.0
 40
5.0
 40
6.0
 40
6.0
 40
6.0
 40
7.0
 40
7.0
 40
7.0
 40
8.0
 40
8.0
 40
8.0
 40
9.0
 40
9.0
 40
9.0
 40
9.0
 10
24.51789946897384
 20
8.925214761551345
 30
0.0
 10
24.51789946897384
 20
8.925214761551345
 30
0.0
 10
24.83192012961205
 20
8.925214761551345
 30
0.0
 10
24.83192012961205
 20
8.925214761551345
 30
0.0
 10
25.03552540710759
 20
8.925214761551345
 30
0.0
 10
25.16264951437638
 20
8.934378721587525
 30
0.0
 10
25.21332690239599
 20
8.95277554361504
 30
0.0
 10
25.26396983943803
 20
8.971172365642555
 30
0.0
 10
25.30365736560975
 20
9.002798363060643
 30
0.0
 10
25.33235502993357
 20
9.047756888802043
 30
0.0
 10
25.36101824327981
 20
9.092680963565863
 30
0.0
 10
25.37534984995293
 20
9.148870507998218
 30
0.0
 10
25.37534984995293
 20
9.21625662014395
 30
0.0
 10
25.37534984995293
 20
9.291842064953629
 30
0.0
 10
25.3564707142393
 20
9.35282029526955
 30
0.0
 10
25.31871244281204
 20
9.399329115002034
 30
0.0
 10
25.28095417138478
 20
9.445769032779356
 30
0.0
 10
25.22765850906911
 20
9.47515571665477
 30
0.0
 10
25.15882545586504
 20
9.487385813695534
 30
0.0
 10
25.12444338024058
 20
9.492484558377317
 30
0.0
 10
25.02119380043447
 20
9.49506838169579
 30
0.0
 10
24.84911116742428
 20
9.49506838169579
 30
0.0
 10
24.84911116742428
 20
9.49506838169579
 30
0.0
 10
24.51789946897384
 20
9.49506838169579
 30
0.0
 10
24.51789946897384
 20
9.49506838169579
 30
0.0
 10
24.51789946897384
 20
9.49506838169579
 30
0.0
 10
24.51789946897384
 20
8.925214761551345
 30
0.0
 10
24.51789946897384
 20
8.925214761551345
 30
0.0
  0
HATCH
  5
BC
330
52
100
AcDbEntity
  8
Layer 1
 62
     9
420
 13154231
100
AcDbHatch
 10
0.0
 20
0.0
 30
0.0
210
0.0
220
0.0
230
1.0
  2
SOLID
 70
     1
 71
     0
 91
        2
 92
        1
 93
        1
 72
     4
 94
        3
 73
     0
 74
     1
 95
       59
 96
       55
 40
0.0
 40
0.0
 40
0.0
 40
0.0
 40
1.0
 40
1.0
 40
1.0
 40
2.0
 40
2.0
 40
2.0
 40
3.0
 40
3.0
 40
3.0
 40
4.0
 40
4.0
 40
4.0
 40
5.0
 40
5.0
 40
5.0
 40
6.0
 40
6.0
 40
6.0
 40
7.0
 40
7.0
 40
7.0
 40
8.0
 40
8.0
 40
8.0
 40
9.0
 40
9.0
 40
9.0
 40
10.0
 40
10.0
 40
10.0
 40
11.0
 40
11.0
 40
11.0
 40
12.0
 40
12.0
 40
12.0
 40
13.0
 40
13.0
 40
13.0
 40
14.0
 40
14.0
 40
14.0
 40
15.0
 40
15.0
 40
15.0
 40
16.0
 40
16.0
 40
16.0
 40
17.0
 40
17.0
 40
17.0
 40
18.0
 40
18.0
 40
18.0
 40
18.0
 10
24.09346342519297
 20
7.629168985006159
 10
24.09346342519297
 20
7.629168985006159
 10
24.09346342519297
 20
9.874993762443804
 10
24.09346342519297
 20
9.874993762443804
 10
24.09346342519297
 20
9.874993762443804
 10
24.98677727383243
 20
9.874993762443804
 10
24.98677727383243
 20
9.874993762443804
 10
25.21139764765153
 20
9.874993762443804
 10
25.37462637942376
 20
9.854805489582148
 10
25.47646346914911
 20
9.814463394836418
 10
25.57826610789687
 20
9.774121300090686
 10
25.65974266987267
 20
9.702359913792344
 10
25.72092760605407
 20
9.59924813789655
 10
25.78207809125789
 20
9.496067460045598
 10
25.81270501032617
 20
9.37810731281299
 10
25.81270501032617
 20
9.245367696198725
 10
25.81270501032617
 20
9.07686796485682
 10
25.76629954352642
 20
8.937686015435167
 10
25.67359196285967
 20
8.827925200866508
 10
25.58088438219292
 20
8.718095484342689
 10
25.44225364841255
 20
8.648917921362818
 10
25.2577686634737
 20
8.620323609971736
 10
25.3495460677458
 20
8.563134987189573
 10
25.42530376744337
 20
8.50033085506193
 10
25.48504176256643
 20
8.431911213588812
 10
25.54477975768949
 20
8.363457121138113
 10
25.62532614327063
 20
8.241948523214804
 10
25.72664646833228
 20
8.067316517863727
 10
25.72664646833228
 20
8.067316517863727
 10
25.98334070227801
 20
7.629168985006159
 10
25.98334070227801
 20
7.629168985006159
 10
25.98334070227801
 20
7.629168985006159
 10
25.47573999861993
 20
7.629168985006159
 10
25.47573999861993
 20
7.629168985006159
 10
25.47573999861993
 20
7.629168985006159
 10
25.16888514131828
 20
8.117890552950604
 10
25.16888514131828
 20
8.117890552950604
 10
25.05991669923396
 20
8.292488107324102
 10
24.98533033277409
 20
8.402524529713398
 10
24.94519494389383
 20
8.447999820118493
 10
24.90505955501358
 20
8.493406208568429
 10
24.86251259770275
 20
8.524618794255561
 10
24.81758852293893
 20
8.541430871314414
 10
24.77262999719753
 20
8.558311850328426
 10
24.70141982654047
 20
8.566717888857852
 10
24.60392355999015
 20
8.566717888857852
 10
24.60392355999015
 20
8.566717888857852
 10
24.51789946897384
 20
8.566717888857852
 10
24.51789946897384
 20
8.566717888857852
 10
24.51789946897384
 20
8.566717888857852
 10
24.51789946897384
 20
7.629168985006159
 10
24.51789946897384
 20
7.629168985006159
 10
24.51789946897384
 20
7.629168985006159
 10
24.09346342519297
 20
7.629168985006159
 10
24.09346342519297
 20
7.629168985006159
 97
        0
 92
        1
 93
        1
 72
     4
 94
        3
 73
     0
 74
     1
 95
       32
 96
       28
 40
0.0
 40
0.0
 40
0.0
 40
0.0
 40
1.0
 40
1.0
 40
1.0
 40
2.0
 40
2.0
 40
2.0
 40
3.0
 40
3.0
 40
3.0
 40
4.0
 40
4.0
 40
4.0
 40
5.0
 40
5.0
 40
5.0
 40
6.0
 40
6.0
 40
6.0
 40
7.0
 40
7.0
 40
7.0
 40
8.0
 40
8.0
 40
8.0
 40
9.0
 40
9.0
 40
9.0
 40
9.0
 10
24.51789946897384
 20
8.925214761551345
 10
24.51789946897384
 20
8.925214761551345
 10
24.83192012961205
 20
8.925214761551345
 10
24.83192012961205
 20
8.925214761551345
 10
25.03552540710759
 20
8.925214761551345
 10
25.16264951437638
 20
8.934378721587525
 10
25.21332690239599
 20
8.95277554361504
 10
25.26396983943803
 20
8.971172365642555
 10
25.30365736560975
 20
9.002798363060643
 10
25.33235502993357
 20
9.047756888802043
 10
25.36101824327981
 20
9.092680963565863
 10
25.37534984995293
 20
9.148870507998218
 10
25.37534984995293
 20
9.21625662014395
 10
25.37534984995293
 20
9.291842064953629
 10
25.3564707142393
 20
9.35282029526955
 10
25.31871244281204
 20
9.399329115002034
 10
25.28095417138478
 20
9.445769032779356
 10
25.22765850906911
 20
9.47515571665477
 10
25.15882545586504
 20
9.487385813695534
 10
25.12444338024058
 20
9.492484558377317
 10
25.02119380043447
 20
9.49506838169579
 10
24.84911116742428
 20
9.49506838169579
 10
24.84911116742428
 20
9.49506838169579
 10
24.51789946897384
 20
9.49506838169579
 10
24.51789946897384
 20
9.49506838169579
 10
24.51789946897384
 20
9.49506838169579
 10
24.51789946897384
 20
8.925214761551345
 10
24.51789946897384
 20
8.925214761551345
 97
        0
 75
     2
 76
     1
 98
        0
  0
ENDBLK
  5
55
330
52
100
AcDbEntity
  8
0
100
AcDbBlockEnd
  0
ENDSEC
  0
SECTION
  2
ENTITIES
  0
POLYLINE
  5
3C
330
1F
100
AcDbEntity
  8
Layer 1
370
     0
100
AcDb2dPolyline
 66
     1
 10
0.0
 20
0.0
 30
0.0
  0
VERTEX
  5
3D
330
3C
100
AcDbEntity
  8
Layer 1
370
     0
100
AcDbVertex
100
AcDb2dVertex
 10
27.64876986043185
 20
0.6350004187474984
 30
0.0
  0
VERTEX
  5
3E
330
3C
100
AcDbEntity
  8
Layer 1
370
     0
100
AcDbVertex
100
AcDb2dVertex
 10
2.07002143884886
 20
0.6350004187474984
 30
0.0
  0
VERTEX
  5
3F
330
3C
100
AcDbEntity
  8
Layer 1
370
     0
100
AcDbVertex
100
AcDb2dVertex
 10
2.07002143884886
 20
20.51049285495765
 30
0.0
  0
VERTEX
  5
40
330
3C
100
AcDbEntity
  8
Layer 1
370
     0
100
AcDbVertex
100
AcDb2dVertex
 10
27.64876986043185
 20
20.51049285495765
 30
0.0
  0
VERTEX
  5
41
330
3C
100
AcDbEntity
  8
Layer 1
370
     0
100
AcDbVertex
100
AcDb2dVertex
 10
27.64876986043185
 20
0.6350004187474984
 30
0.0
  0
SEQEND
  5
42
330
3C
100
AcDbEntity
  8
Layer 1
370
     0
  0
HATCH
  5
43
330
1F
100
AcDbEntity
  8
Layer 1
 62
   168
420
   791100
100
AcDbHatch
 10
0.0
 20
0.0
 30
0.0
210
0.0
220
0.0
230
1.0
  2
SOLID
 70
     1
 71
     0
 91
        1
 92
        1
 93
        4
 72
     1
 10
27.64876986043185
 20
0.6350004187474984
 11
2.070021438848862
 21
0.6350004187474984
 72
     1
 10
2.07002143884886
 20
0.6350004187474984
 11
2.07002143884886
 21
20.51049285495765
 72
     1
 10
2.07002143884886
 20
20.51049285495765
 11
27.64876986043185
 21
20.51049285495765
 72
     1
 10
27.64876986043185
 20
20.51049285495765
 11
27.64876986043185
 21
0.6350004187474987
 97
        0
 75
     2
 76
     1
 98
        0
  0
POLYLINE
  5
44
330
1F
100
AcDbEntity
  8
Layer 1
370
     0
100
AcDb2dPolyline
 66
     1
 10
0.0
 20
0.0
 30
0.0
  0
VERTEX
  5
45
330
44
100
AcDbEntity
  8
Layer 1
370
     0
100
AcDbVertex
100
AcDb2dVertex
 10
7.329342127130754
 20
7.0552846004849
 30
0.0
  0
VERTEX
  5
46
330
44
100
AcDbEntity
  8
Layer 1
370
     0
100
AcDbVertex
100
AcDb2dVertex
 10
25.98998974095088
 20
7.0552846004849
 30
0.0
  0
VERTEX
  5
47
330
44
100
AcDbEntity
  8
Layer 1
370
     0
100
AcDbVertex
100
AcDb2dVertex
 10
25.98998974095088
 20
7.407373591348585
 30
0.0
  0
VERTEX
  5
48
330
44
100
AcDbEntity
  8
Layer 1
370
     0
100
AcDbVertex
100
AcDb2dVertex
 10
7.329342127130754
 20
7.407373591348585
 30
0.0
  0
VERTEX
  5
49
330
44
100
AcDbEntity
  8
Layer 1
370
     0
100
AcDbVertex
100
AcDb2dVertex
 10
7.329342127130754
 20
7.0552846004849
 30
0.0
  0
SEQEND
  5
4A
330
44
100
AcDbEntity
  8
Layer 1
370
     0
  0
HATCH
  5
4B
330
1F
100
AcDbEntity
  8
Layer 1
 62
    22
420
 15474467
100
AcDbHatch
 10
0.0
 20
0.0
 30
0.0
210
0.0
220
0.0
230
1.0
  2
SOLID
 70
     1
 71
     0
 91
        1
 92
        1
 93
        4
 72
     1
 10
7.329342127130754
 20
7.0552846004849
 11
25.98998974095088
 21
7.0552846004849
 72
     1
 10
25.98998974095088
 20
7.0552846004849
 11
25.98998974095088
 21
7.407373591348585
 72
     1
 10
25.98998974095088
 20
7.407373591348585
 11
7.329342127130754
 21
7.407373591348585
 72
     1
 10
7.329342127130754
 20
7.407373591348585
 11
7.329342127130754
 21
7.0552846004849
 97
        0
 75
     2
 76
     1
 98
        0
  0
SPLINE
  5
4C
330
1F
100
AcDbEntity
  8
Layer 1
370
     0
100
AcDbSpline
210
0.0
220
0.0
230
1.0
 70
    11
 71
     3
 72
   233
 73
   229
 74
     0
 42
0.0000000001
 43
0.0000000001
 40
0.0
 40
0.0
 40
0.0
 40
0.0
 40
1.0
 40
1.0
 40
1.0
 40
2.0
 40
2.0
 40
2.0
 40
3.0
 40
3.0
 40
3.0
 40
4.0
 40
4.0
 40
4.0
 40
5.0
 40
5.0
 40
5.0
 40
6.0
 40
6.0
 40
6.0
 40
7.0
 40
7.0
 40
7.0
 40
8.0
 40
8.0
 40
8.0
 40
9.0
 40
9.0
 40
9.0
 40
10.0
 40
10.0
 40
10.0
 40
11.0
 40
11.0
 40
11.0
 40
12.0
 40
12.0
 40
12.0
 40
13.0
 40
13.0
 40
13.0
 40
14.0
 40
14.0
 40
14.0
 40
15.0
 40
15.0
 40
15.0
 40
16.0
 40
16.0
 40
16.0
 40
17.0
 40
17.0
 40
17.0
 40
18.0
 40
18.0
 40
18.0
 40
19.0
 40
19.0
 40
19.0
 40
20.0
 40
20.0
 40
20.0
 40
21.0
 40
21.0
 40
21.0
 40
22.0
 40
22.0
 40
22.0
 40
23.0
 40
23.0
 40
23.0
 40
24.0
 40
24.0
 40
24.0
 40
25.0
 40
25.0
 40
25.0
 40
26.0
 40
26.0
 40
26.0
 40
27.0
 40
27.0
 40
27.0
 40
28.0
 40
28.0
 40
28.0
 40
29.0
 40
29.0
 40
29.0
 40
30.0
 40
30.0
 40
30.0
 40
31.0
 40
31.0
 40
31.0
 40
32.0
 40
32.0
 40
32.0
 40
33.0
 40
33.0
 40
33.0
 40
34.0
 40
34.0
 40
34.0
 40
35.0
 40
35.0
 40
35.0
 40
36.0
 40
36.0
 40
36.0
 40
37.0
 40
37.0
 40
37.0
 40
38.0
 40
38.0
 40
38.0
 40
39.0
 40
39.0
 40
39.0
 40
40.0
 40
40.0
 40
40.0
 40
41.0
 40
41.0
 40
41.0
 40
42.0
 40
42.0
 40
42.0
 40
43.0
 40
43.0
 40
43.0
 40
44.0
 40
44.0
 40
44.0
 40
45.0
 40
45.0
 40
45.0
 40
46.0
 40
46.0
 40
46.0
 40
47.0
 40
47.0
 40
47.0
 40
48.0
 40
48.0
 40
48.0
 40
49.0
 40
49.0
 40
49.0
 40
50.0
 40
50.0
 40
50.0
 40
51.0
 40
51.0
 40
51.0
 40
52.0
 40
52.0
 40
52.0
 40
53.0
 40
53.0
 40
53.0
 40
54.0
 40
54.0
 40
54.0
 40
55.0
 40
55.0
 40
55.0
 40
56.0
 40
56.0
 40
56.0
 40
57.0
 40
57.0
 40
57.0
 40
58.0
 40
58.0
 40
58.0
 40
59.0
 40
59.0
 40
59.0
 40
60.0
 40
60.0
 40
60.0
 40
61.0
 40
61.0
 40
61.0
 40
62.0
 40
62.0
 40
62.0
 40
63.0
 40
63.0
 40
63.0
 40
64.0
 40
64.0
 40
64.0
 40
65.0
 40
65.0
 40
65.0
 40
66.0
 40
66.0
 40
66.0
 40
67.0
 40
67.0
 40
67.0
 40
68.0
 40
68.0
 40
68.0
 40
69.0
 40
69.0
 40
69.0
 40
70.0
 40
70.0
 40
70.0
 40
71.0
 40
71.0
 40
71.0
 40
72.0
 40
72.0
 40
72.0
 40
73.0
 40
73.0
 40
73.0
 40
74.0
 40
74.0
 40
74.0
 40
75.0
 40
75.0
 40
75.0
 40
76.0
 40
76.0
 40
76.0
 40
76.0
 10
4.003134692796323
 20
8.493578463456325
 30
0.0
 10
4.003134692796323
 20
8.493578463456325
 30
0.0
 10
4.12751994734753
 20
8.493578463456325
 30
0.0
 10
4.12751994734753
 20
8.493578463456325
 30
0.0
 10
4.12751994734753
 20
8.493578463456325
 30
0.0
 10
4.146588563437847
 20
8.489237640281294
 30
0.0
 10
4.167155797052879
 20
8.47252891615518
 30
0.0
 10
4.1877402561567
 20
8.455854643006646
 30
0.0
 10
4.207015578112495
 20
8.42402193972308
 30
0.0
 10
4.207015578112495
 20
8.42402193972308
 30
0.0
 10
4.207015578112495
 20
8.42402193972308
 30
0.0
 10
4.634741690252229
 20
8.155407667534806
 30
0.0
 10
4.634741690252229
 20
8.155407667534806
 30
0.0
 10
4.634741690252229
 20
8.155407667534806
 30
0.0
 10
4.433771912541534
 20
7.997312131421944
 30
0.0
 10
4.433771912541534
 20
7.997312131421944
 30
0.0
 10
4.433771912541534
 20
7.997312131421944
 30
0.0
 10
4.300756688106633
 20
8.014778777054811
 30
0.0
 10
4.241948869378227
 20
8.003616660319015
 30
0.0
 10
4.194148137986509
 20
7.994693857125894
 30
0.0
 10
4.172633502488038
 20
7.98518538731392
 30
0.0
 10
4.146588563437847
 20
7.965031565429844
 30
0.0
 10
4.101492233786129
 20
7.93023607807443
 30
0.0
 10
4.1157377130153
 20
7.878800768548063
 30
0.0
 10
4.1157377130153
 20
7.878800768548063
 30
0.0
 10
4.1157377130153
 20
7.878800768548063
 30
0.0
 10
4.634741690252229
 20
7.881866905552648
 30
0.0
 10
4.634741690252229
 20
7.881866905552648
 30
0.0
 10
4.634741690252229
 20
7.881866905552648
 30
0.0
 10
5.155037579148392
 20
8.028145756355702
 30
0.0
 10
5.155037579148392
 20
8.028145756355702
 30
0.0
 10
5.155037579148392
 20
8.028145756355702
 30
0.0
 10
5.153883471399475
 20
8.07331098796258
 30
0.0
 10
5.153883471399475
 20
8.07331098796258
 30
0.0
 10
5.153883471399475
 20
8.07331098796258
 30
0.0
 10
5.376454012052591
 20
8.066834204177612
 30
0.0
 10
5.515498157563925
 20
8.131154179318756
 30
0.0
 10
5.586346592956406
 20
8.163882608019392
 30
0.0
 10
5.873943353791048
 20
8.349573377173527
 30
0.0
 10
5.959416229166077
 20
8.340857279845885
 30
0.0
 10
5.959416229166077
 20
8.340857279845885
 30
0.0
 10
5.944430053918945
 20
8.019085149252263
 30
0.0
 10
5.944430053918945
 20
8.019085149252263
 30
0.0
 10
5.944430053918945
 20
8.019085149252263
 30
0.0
 10
5.837528670489393
 20
8.011402581252009
 30
0.0
 10
5.776808822505318
 20
7.994211543439779
 30
0.0
 10
5.696021280081117
 20
7.976744897806913
 30
0.0
 10
5.680501114681499
 20
7.884002866162585
 30
0.0
 10
5.680501114681499
 20
7.884002866162585
 30
0.0
 10
5.680501114681499
 20
7.884002866162585
 30
0.0
 10
6.092483130067348
 20
7.88892935595647
 30
0.0
 10
6.092483130067348
 20
7.88892935595647
 30
0.0
 10
6.092483130067348
 20
7.88892935595647
 30
0.0
 10
6.123333980489894
 20
7.980568956318251
 30
0.0
 10
6.173132868581231
 20
8.07775516407035
 30
0.0
 10
6.222845629228618
 20
8.175044724755189
 30
0.0
 10
6.293780192065049
 20
8.251043581295823
 30
0.0
 10
6.293780192065049
 20
8.251043581295823
 30
0.0
 10
6.293780192065049
 20
8.251043581295823
 30
0.0
 10
6.362217059026958
 20
8.185517821939392
 30
0.0
 10
6.433857866903772
 20
8.144176648843851
 30
0.0
 10
6.505550351246955
 20
8.102732122815572
 30
0.0
 10
6.727276842949369
 20
8.009542228462708
 30
0.0
 10
6.727276842949369
 20
8.009542228462708
 30
0.0
 10
6.727276842949369
 20
8.009542228462708
 30
0.0
 10
6.648039594516249
 20
7.993591425843346
 30
0.0
 10
6.615776254012938
 20
7.978708603528951
 30
0.0
 10
6.569164081347717
 20
7.956143213214303
 30
0.0
 10
6.547614994871666
 20
7.895096080943222
 30
0.0
 10
6.547614994871666
 20
7.895096080943222
 30
0.0
 10
6.547614994871666
 20
7.895096080943222
 30
0.0
 10
6.88185837934911
 20
7.882762630969719
 30
0.0
 10
6.88185837934911
 20
7.882762630969719
 30
0.0
 10
6.88185837934911
 20
7.882762630969719
 30
0.0
 10
6.891160143295606
 20
8.167396607732513
 30
0.0
 10
6.891160143295606
 20
8.167396607732513
 30
0.0
 10
6.891160143295606
 20
8.167396607732513
 30
0.0
 10
6.692894767324911
 20
8.2098402121106
 30
0.0
 10
6.692894767324911
 20
8.2098402121106
 30
0.0
 10
6.692894767324911
 20
8.2098402121106
 30
0.0
 10
6.669640357458669
 20
8.343785612940152
 30
0.0
 10
6.634207527018034
 20
8.42757039041378
 30
0.0
 10
6.606543392021601
 20
8.492786090971995
 30
0.0
 10
6.553764494369628
 20
8.59751706281403
 30
0.0
 10
6.553764494369628
 20
8.59751706281403
 30
0.0
 10
6.553764494369628
 20
8.59751706281403
 30
0.0
 10
6.667056534140198
 20
8.633897295138105
 30
0.0
 10
6.680595768328987
 20
8.702937054207657
 30
0.0
 10
6.691602855665675
 20
8.758368677133262
 30
0.0
 10
6.683334621046567
 20
8.79798730134982
 30
0.0
 10
6.65692794673179
 20
8.86010241392587
 30
0.0
 10
6.582754992002876
 20
8.980301874701153
 30
0.0
 10
6.423057485432562
 20
8.983988129302173
 30
0.0
 10
6.399389663835365
 20
8.985056109607141
 30
0.0
 10
6.30723329880989
 20
8.988776815185739
 30
0.0
 10
6.194440798214224
 20
8.959459033265485
 30
0.0
 10
6.015364616755376
 20
8.891900666231857
 30
0.0
 10
5.911115958599455
 20
8.853660081118482
 30
0.0
 10
5.762976755007102
 20
8.791992831250967
 30
0.0
 10
5.692042192170671
 20
8.770013107555172
 30
0.0
 10
5.621228207755768
 20
8.748067834836956
 30
0.0
 10
5.520562451268128
 20
8.721230523302435
 30
0.0
 10
5.454985015445327
 20
8.746207482047657
 30
0.0
 10
5.389442030600106
 20
8.771391146658356
 30
0.0
 10
5.374335276931444
 20
8.816659731197973
 30
0.0
 10
5.36842693427654
 20
8.857828649405615
 30
0.0
 10
5.362329111244947
 20
8.937513760547269
 30
0.0
 10
5.442479310583926
 20
9.035388987850961
 30
0.0
 10
5.442479310583926
 20
9.035388987850961
 30
0.0
 10
5.442479310583926
 20
9.035388987850961
 30
0.0
 10
5.292135244426478
 20
8.955118210090454
 30
0.0
 10
5.269259795313612
 20
8.894828999326124
 30
0.0
 10
5.250397885088772
 20
8.844771728902941
 30
0.0
 10
5.266228109286606
 20
8.801949163771477
 30
0.0
 10
5.277390226022402
 20
8.772631381851223
 30
0.0
 10
5.288655695690937
 20
8.743348050908548
 30
0.0
 10
5.350030112249025
 20
8.67038088039492
 30
0.0
 10
5.430145860610423
 20
8.675169566278486
 30
0.0
 10
5.510588893258829
 20
8.679958252162054
 30
0.0
 10
5.623932609495768
 20
8.710309563409696
 30
0.0
 10
5.672887448636404
 20
8.7224707584953
 30
0.0
 10
5.761684843347866
 20
8.744278227303198
 30
0.0
 10
5.923862820303913
 20
8.81700424097377
 30
0.0
 10
6.101905472435373
 20
8.870127648401539
 30
0.0
 10
6.284564555562501
 20
8.924594643954913
 30
0.0
 10
6.338755943295239
 20
8.93107142773988
 30
0.0
 10
6.409449349288613
 20
8.924594643954913
 30
0.0
 10
6.437940307746956
 20
8.921976369658863
 30
0.0
 10
6.533162809777017
 20
8.896207038429308
 30
0.0
 10
6.583409560576889
 20
8.839535180310838
 30
0.0
 10
6.605802696003639
 20
8.8142481627674
 30
0.0
 10
6.608162587967843
 20
8.760056775034663
 30
0.0
 10
6.585993383895359
 20
8.723676542710587
 30
0.0
 10
6.563893081778035
 20
8.687399663319251
 30
0.0
 10
6.528012388628865
 20
8.664420861273646
 30
0.0
 10
6.499779812502369
 20
8.663042822170462
 30
0.0
 10
6.471357755999184
 20
8.661837037955175
 30
0.0
 10
6.262464253445177
 20
8.680371663893009
 30
0.0
 10
6.142075312293207
 20
8.662732763372246
 30
0.0
 10
6.021755273096394
 20
8.645059411873902
 30
0.0
 10
5.79918473244328
 20
8.563582849898108
 30
0.0
 10
5.659348214447615
 20
8.545186027870592
 30
0.0
 10
5.51947724547437
 20
8.526582499977598
 30
0.0
 10
5.377987080554884
 20
8.53822693039951
 30
0.0
 10
5.292807038489281
 20
8.560034399207407
 30
0.0
 10
5.207540868979729
 20
8.581979671925623
 30
0.0
 10
5.126977257909795
 20
8.628660746546004
 30
0.0
 10
5.126977257909795
 20
8.628660746546004
 30
0.0
 10
5.126977257909795
 20
8.628660746546004
 30
0.0
 10
5.087978751289668
 20
8.775249656147274
 30
0.0
 10
5.067411517674637
 20
8.820345985798992
 30
0.0
 10
5.046723705638077
 20
8.86537341349555
 30
0.0
 10
4.987640279089034
 20
8.93827168205402
 30
0.0
 10
4.987640279089034
 20
8.93827168205402
 30
0.0
 10
4.987640279089034
 20
8.93827168205402
 30
0.0
 10
5.014632620022664
 20
9.01210012700714
 30
0.0
 10
5.014632620022664
 20
9.01210012700714
 30
0.0
 10
5.014632620022664
 20
9.01210012700714
 30
0.0
 10
4.928074538853877
 20
8.975582090772745
 30
0.0
 10
4.906404873956298
 20
8.973549483095548
 30
0.0
 10
4.884890238457827
 20
8.97158577737351
 30
0.0
 10
4.762778748426875
 20
8.99139508948179
 30
0.0
 10
4.727724878739615
 20
8.990774971885356
 30
0.0
 10
4.692688234541144
 20
8.990292658199243
 30
0.0
 10
4.628557739776688
 20
8.974204051669561
 30
0.0
 10
4.597241801156816
 20
8.964523326969688
 30
0.0
 10
4.563858803882167
 20
8.954222484673384
 30
0.0
 10
4.429947854030196
 20
8.902614920259117
 30
0.0
 10
4.429947854030196
 20
8.902614920259117
 30
0.0
 10
4.429947854030196
 20
8.902614920259117
 30
0.0
 10
4.439800833617967
 20
8.780313949851477
 30
0.0
 10
4.439800833617967
 20
8.780313949851477
 30
0.0
 10
4.439800833617967
 20
8.780313949851477
 30
0.0
 10
4.481572643933252
 20
8.819002397673387
 30
0.0
 10
4.5032939852972
 20
8.819002397673387
 30
0.0
 10
4.525153130571468
 20
8.819002397673387
 30
0.0
 10
4.541345090033888
 20
8.781106322335809
 30
0.0
 10
4.539433060778219
 20
8.766189049043835
 30
0.0
 10
4.537348776634651
 20
8.751168422819122
 30
0.0
 10
4.482416692883953
 20
8.725846954298103
 30
0.0
 10
4.448982019142934
 20
8.727672856109823
 30
0.0
 10
4.340995429919626
 20
8.733977385006893
 30
0.0
 10
4.328283019192747
 20
8.829923357566125
 30
0.0
 10
4.328283019192747
 20
8.829923357566125
 30
0.0
 10
4.328283019192747
 20
8.829923357566125
 30
0.0
 10
4.323683813685868
 20
8.778901459770713
 30
0.0
 10
4.340823175031727
 20
8.752512010944727
 30
0.0
 10
4.357859183444848
 20
8.726260366029058
 30
0.0
 10
4.382147122638478
 20
8.716614092306767
 30
0.0
 10
4.399510415338605
 20
8.70906932821683
 30
0.0
 10
4.417080413904209
 20
8.70186907390269
 30
0.0
 10
4.479126624525099
 20
8.701248956306257
 30
0.0
 10
4.49440563308166
 20
8.703109309095556
 30
0.0
 10
4.509736318104589
 20
8.704935210907276
 30
0.0
 10
4.554298657603823
 20
8.718439994118485
 30
0.0
 10
4.554298657603823
 20
8.718439994118485
 30
0.0
 10
4.554298657603823
 20
8.718439994118485
 30
0.0
 10
4.535867384598729
 20
8.649400235048933
 30
0.0
 10
4.520243866266372
 20
8.647229823461418
 30
0.0
 10
4.504499769512488
 20
8.644887156986004
 30
0.0
 10
4.476973438426374
 20
8.67224123318422
 30
0.0
 10
4.476973438426374
 20
8.67224123318422
 30
0.0
 10
4.476973438426374
 20
8.67224123318422
 30
0.0
 10
4.477714134444335
 20
8.592900631818361
 30
0.0
 10
4.492373025404462
 20
8.58228973072384
 30
0.0
 10
4.507169720274907
 20
8.571678829629317
 30
0.0
 10
4.515007317674271
 20
8.579395848607152
 30
0.0
 10
4.515007317674271
 20
8.579395848607152
 30
0.0
 10
4.549682226608154
 20
8.619290080644348
 30
0.0
 10
4.606870849390319
 20
8.641097549452246
 30
0.0
 10
4.606870849390319
 20
8.641097549452246
 30
0.0
 10
4.606870849390319
 20
8.641097549452246
 30
0.0
 10
4.59865429123758
 20
8.506015266362567
 30
0.0
 10
4.59865429123758
 20
8.506015266362567
 30
0.0
 10
4.59865429123758
 20
8.506015266362567
 30
0.0
 10
4.32172010796383
 20
8.532990381807407
 30
0.0
 10
4.32172010796383
 20
8.532990381807407
 30
0.0
 10
4.32172010796383
 20
8.532990381807407
 30
0.0
 10
4.299464776447397
 20
8.580291574024221
 30
0.0
 10
4.2757969548502
 20
8.594726533630082
 30
0.0
 10
4.252198035208163
 20
8.608989238348043
 30
0.0
 10
4.208600323081158
 20
8.62097817854575
 30
0.0
 10
4.155476915653389
 20
8.62449217825887
 30
0.0
 10
4.102560214091097
 20
8.62804062894957
 30
0.0
 10
4.057928972636703
 20
8.610849591137342
 30
0.0
 10
4.038395268349061
 20
8.59221161226677
 30
0.0
 10
4.018878789550207
 20
8.573711437306516
 30
0.0
 10
4.003134692796323
 20
8.493578463456325
 30
0.0
 10
4.003134692796323
 20
8.493578463456325
 30
0.0
  0
HATCH
  5
4D
330
1F
100
AcDbEntity
  8
Layer 1
 62
     2
420
 16116245
100
AcDbHatch
 10
0.0
 20
0.0
 30
0.0
210
0.0
220
0.0
230
1.0
  2
SOLID
 70
     1
 71
     0
 91
        1
 92
        1
 93
        1
 72
     4
 94
        3
 73
     0
 74
     1
 95
      233
 96
      229
 40
0.0
 40
0.0
 40
0.0
 40
0.0
 40
1.0
 40
1.0
 40
1.0
 40
2.0
 40
2.0
 40
2.0
 40
3.0
 40
3.0
 40
3.0
 40
4.0
 40
4.0
 40
4.0
 40
5.0
 40
5.0
 40
5.0
 40
6.0
 40
6.0
 40
6.0
 40
7.0
 40
7.0
 40
7.0
 40
8.0
 40
8.0
 40
8.0
 40
9.0
 40
9.0
 40
9.0
 40
10.0
 40
10.0
 40
10.0
 40
11.0
 40
11.0
 40
11.0
 40
12.0
 40
12.0
 40
12.0
 40
13.0
 40
13.0
 40
13.0
 40
14.0
 40
14.0
 40
14.0
 40
15.0
 40
15.0
 40
15.0
 40
16.0
 40
16.0
 40
16.0
 40
17.0
 40
17.0
 40
17.0
 40
18.0
 40
18.0
 40
18.0
 40
19.0
 40
19.0
 40
19.0
 40
20.0
 40
20.0
 40
20.0
 40
21.0
 40
21.0
 40
21.0
 40
22.0
 40
22.0
 40
22.0
 40
23.0
 40
23.0
 40
23.0
 40
24.0
 40
24.0
 40
24.0
 40
25.0
 40
25.0
 40
25.0
 40
26.0
 40
26.0
 40
26.0
 40
27.0
 40
27.0
 40
27.0
 40
28.0
 40
28.0
 40
28.0
 40
29.0
 40
29.0
 40
29.0
 40
30.0
 40
30.0
 40
30.0
 40
31.0
 40
31.0
 40
31.0
 40
32.0
 40
32.0
 40
32.0
 40
33.0
 40
33.0
 40
33.0
 40
34.0
 40
34.0
 40
34.0
 40
35.0
 40
35.0
 40
35.0
 40
36.0
 40
36.0
 40
36.0
 40
37.0
 40
37.0
 40
37.0
 40
38.0
 40
38.0
 40
38.0
 40
39.0
 40
39.0
 40
39.0
 40
40.0
 40
40.0
 40
40.0
 40
41.0
 40
41.0
 40
41.0
 40
42.0
 40
42.0
 40
42.0
 40
43.0
 40
43.0
 40
43.0
 40
44.0
 40
44.0
 40
44.0
 40
45.0
 40
45.0
 40
45.0
 40
46.0
 40
46.0
 40
46.0
 40
47.0
 40
47.0
 40
47.0
 40
48.0
 40
48.0
 40
48.0
 40
49.0
 40
49.0
 40
49.0
 40
50.0
 40
50.0
 40
50.0
 40
51.0
 40
51.0
 40
51.0
 40
52.0
 40
52.0
 40
52.0
 40
53.0
 40
53.0
 40
53.0
 40
54.0
 40
54.0
 40
54.0
 40
55.0
 40
55.0
 40
55.0
 40
56.0
 40
56.0
 40
56.0
 40
57.0
 40
57.0
 40
57.0
 40
58.0
 40
58.0
 40
58.0
 40
59.0
 40
59.0
 40
59.0
 40
60.0
 40
60.0
 40
60.0
 40
61.0
 40
61.0
 40
61.0
 40
62.0
 40
62.0
 40
62.0
 40
63.0
 40
63.0
 40
63.0
 40
64.0
 40
64.0
 40
64.0
 40
65.0
 40
65.0
 40
65.0
 40
66.0
 40
66.0
 40
66.0
 40
67.0
 40
67.0
 40
67.0
 40
68.0
 40
68.0
 40
68.0
 40
69.0
 40
69.0
 40
69.0
 40
70.0
 40
70.0
 40
70.0
 40
71.0
 40
71.0
 40
71.0
 40
72.0
 40
72.0
 40
72.0
 40
73.0
 40
73.0
 40
73.0
 40
74.0
 40
74.0
 40
74.0
 40
75.0
 40
75.0
 40
75.0
 40
76.0
 40
76.0
 40
76.0
 40
76.0
 10
4.003134692796323
 20
8.493578463456325
 10
4.003134692796323
 20
8.493578463456325
 10
4.12751994734753
 20
8.493578463456325
 10
4.12751994734753
 20
8.493578463456325
 10
4.12751994734753
 20
8.493578463456325
 10
4.146588563437847
 20
8.489237640281294
 10
4.167155797052879
 20
8.47252891615518
 10
4.1877402561567
 20
8.455854643006646
 10
4.207015578112495
 20
8.42402193972308
 10
4.207015578112495
 20
8.42402193972308
 10
4.207015578112495
 20
8.42402193972308
 10
4.634741690252229
 20
8.155407667534806
 10
4.634741690252229
 20
8.155407667534806
 10
4.634741690252229
 20
8.155407667534806
 10
4.433771912541534
 20
7.997312131421944
 10
4.433771912541534
 20
7.997312131421944
 10
4.433771912541534
 20
7.997312131421944
 10
4.300756688106633
 20
8.014778777054811
 10
4.241948869378227
 20
8.003616660319015
 10
4.194148137986509
 20
7.994693857125894
 10
4.172633502488038
 20
7.98518538731392
 10
4.146588563437847
 20
7.965031565429844
 10
4.101492233786129
 20
7.93023607807443
 10
4.1157377130153
 20
7.878800768548063
 10
4.1157377130153
 20
7.878800768548063
 10
4.1157377130153
 20
7.878800768548063
 10
4.634741690252229
 20
7.881866905552648
 10
4.634741690252229
 20
7.881866905552648
 10
4.634741690252229
 20
7.881866905552648
 10
5.155037579148392
 20
8.028145756355702
 10
5.155037579148392
 20
8.028145756355702
 10
5.155037579148392
 20
8.028145756355702
 10
5.153883471399475
 20
8.07331098796258
 10
5.153883471399475
 20
8.07331098796258
 10
5.153883471399475
 20
8.07331098796258
 10
5.376454012052591
 20
8.066834204177612
 10
5.515498157563925
 20
8.131154179318756
 10
5.586346592956406
 20
8.163882608019392
 10
5.873943353791048
 20
8.349573377173527
 10
5.959416229166077
 20
8.340857279845885
 10
5.959416229166077
 20
8.340857279845885
 10
5.944430053918945
 20
8.019085149252263
 10
5.944430053918945
 20
8.019085149252263
 10
5.944430053918945
 20
8.019085149252263
 10
5.837528670489393
 20
8.011402581252009
 10
5.776808822505318
 20
7.994211543439779
 10
5.696021280081117
 20
7.976744897806913
 10
5.680501114681499
 20
7.884002866162585
 10
5.680501114681499
 20
7.884002866162585
 10
5.680501114681499
 20
7.884002866162585
 10
6.092483130067348
 20
7.88892935595647
 10
6.092483130067348
 20
7.88892935595647
 10
6.092483130067348
 20
7.88892935595647
 10
6.123333980489894
 20
7.980568956318251
 10
6.173132868581231
 20
8.07775516407035
 10
6.222845629228618
 20
8.175044724755189
 10
6.293780192065049
 20
8.251043581295823
 10
6.293780192065049
 20
8.251043581295823
 10
6.293780192065049
 20
8.251043581295823
 10
6.362217059026958
 20
8.185517821939392
 10
6.433857866903772
 20
8.144176648843851
 10
6.505550351246955
 20
8.102732122815572
 10
6.727276842949369
 20
8.009542228462708
 10
6.727276842949369
 20
8.009542228462708
 10
6.727276842949369
 20
8.009542228462708
 10
6.648039594516249
 20
7.993591425843346
 10
6.615776254012938
 20
7.978708603528951
 10
6.569164081347717
 20
7.956143213214303
 10
6.547614994871666
 20
7.895096080943222
 10
6.547614994871666
 20
7.895096080943222
 10
6.547614994871666
 20
7.895096080943222
 10
6.88185837934911
 20
7.882762630969719
 10
6.88185837934911
 20
7.882762630969719
 10
6.88185837934911
 20
7.882762630969719
 10
6.891160143295606
 20
8.167396607732513
 10
6.891160143295606
 20
8.167396607732513
 10
6.891160143295606
 20
8.167396607732513
 10
6.692894767324911
 20
8.2098402121106
 10
6.692894767324911
 20
8.2098402121106
 10
6.692894767324911
 20
8.2098402121106
 10
6.669640357458669
 20
8.343785612940152
 10
6.634207527018034
 20
8.42757039041378
 10
6.606543392021601
 20
8.492786090971995
 10
6.553764494369628
 20
8.59751706281403
 10
6.553764494369628
 20
8.59751706281403
 10
6.553764494369628
 20
8.59751706281403
 10
6.667056534140198
 20
8.633897295138105
 10
6.680595768328987
 20
8.702937054207657
 10
6.691602855665675
 20
8.758368677133262
 10
6.683334621046567
 20
8.79798730134982
 10
6.65692794673179
 20
8.86010241392587
 10
6.582754992002876
 20
8.980301874701153
 10
6.423057485432562
 20
8.983988129302173
 10
6.399389663835365
 20
8.985056109607141
 10
6.30723329880989
 20
8.988776815185739
 10
6.194440798214224
 20
8.959459033265485
 10
6.015364616755376
 20
8.891900666231857
 10
5.911115958599455
 20
8.853660081118482
 10
5.762976755007102
 20
8.791992831250967
 10
5.692042192170671
 20
8.770013107555172
 10
5.621228207755768
 20
8.748067834836956
 10
5.520562451268128
 20
8.721230523302435
 10
5.454985015445327
 20
8.746207482047657
 10
5.389442030600106
 20
8.771391146658356
 10
5.374335276931444
 20
8.816659731197973
 10
5.36842693427654
 20
8.857828649405615
 10
5.362329111244947
 20
8.937513760547269
 10
5.442479310583926
 20
9.035388987850961
 10
5.442479310583926
 20
9.035388987850961
 10
5.442479310583926
 20
9.035388987850961
 10
5.292135244426478
 20
8.955118210090454
 10
5.269259795313612
 20
8.894828999326124
 10
5.250397885088772
 20
8.844771728902941
 10
5.266228109286606
 20
8.801949163771477
 10
5.277390226022402
 20
8.772631381851223
 10
5.288655695690937
 20
8.743348050908548
 10
5.350030112249025
 20
8.67038088039492
 10
5.430145860610423
 20
8.675169566278486
 10
5.510588893258829
 20
8.679958252162054
 10
5.623932609495768
 20
8.710309563409696
 10
5.672887448636404
 20
8.7224707584953
 10
5.761684843347866
 20
8.744278227303198
 10
5.923862820303913
 20
8.81700424097377
 10
6.101905472435373
 20
8.870127648401539
 10
6.284564555562501
 20
8.924594643954913
 10
6.338755943295239
 20
8.93107142773988
 10
6.409449349288613
 20
8.924594643954913
 10
6.437940307746956
 20
8.921976369658863
 10
6.533162809777017
 20
8.896207038429308
 10
6.583409560576889
 20
8.839535180310838
 10
6.605802696003639
 20
8.8142481627674
 10
6.608162587967843
 20
8.760056775034663
 10
6.585993383895359
 20
8.723676542710587
 10
6.563893081778035
 20
8.687399663319251
 10
6.528012388628865
 20
8.664420861273646
 10
6.499779812502369
 20
8.663042822170462
 10
6.471357755999184
 20
8.661837037955175
 10
6.262464253445177
 20
8.680371663893009
 10
6.142075312293207
 20
8.662732763372246
 10
6.021755273096394
 20
8.645059411873902
 10
5.79918473244328
 20
8.563582849898108
 10
5.659348214447615
 20
8.545186027870592
 10
5.51947724547437
 20
8.526582499977598
 10
5.377987080554884
 20
8.53822693039951
 10
5.292807038489281
 20
8.560034399207407
 10
5.207540868979729
 20
8.581979671925623
 10
5.126977257909795
 20
8.628660746546004
 10
5.126977257909795
 20
8.628660746546004
 10
5.126977257909795
 20
8.628660746546004
 10
5.087978751289668
 20
8.775249656147274
 10
5.067411517674637
 20
8.820345985798992
 10
5.046723705638077
 20
8.86537341349555
 10
4.987640279089034
 20
8.93827168205402
 10
4.987640279089034
 20
8.93827168205402
 10
4.987640279089034
 20
8.93827168205402
 10
5.014632620022664
 20
9.01210012700714
 10
5.014632620022664
 20
9.01210012700714
 10
5.014632620022664
 20
9.01210012700714
 10
4.928074538853877
 20
8.975582090772745
 10
4.906404873956298
 20
8.973549483095548
 10
4.884890238457827
 20
8.97158577737351
 10
4.762778748426875
 20
8.99139508948179
 10
4.727724878739615
 20
8.990774971885356
 10
4.692688234541144
 20
8.990292658199243
 10
4.628557739776688
 20
8.974204051669561
 10
4.597241801156816
 20
8.964523326969688
 10
4.563858803882167
 20
8.954222484673384
 10
4.429947854030196
 20
8.902614920259117
 10
4.429947854030196
 20
8.902614920259117
 10
4.429947854030196
 20
8.902614920259117
 10
4.439800833617967
 20
8.780313949851477
 10
4.439800833617967
 20
8.780313949851477
 10
4.439800833617967
 20
8.780313949851477
 10
4.481572643933252
 20
8.819002397673387
 10
4.5032939852972
 20
8.819002397673387
 10
4.525153130571468
 20
8.819002397673387
 10
4.541345090033888
 20
8.781106322335809
 10
4.539433060778219
 20
8.766189049043835
 10
4.537348776634651
 20
8.751168422819122
 10
4.482416692883953
 20
8.725846954298103
 10
4.448982019142934
 20
8.727672856109823
 10
4.340995429919626
 20
8.733977385006893
 10
4.328283019192747
 20
8.829923357566125
 10
4.328283019192747
 20
8.829923357566125
 10
4.328283019192747
 20
8.829923357566125
 10
4.323683813685868
 20
8.778901459770713
 10
4.340823175031727
 20
8.752512010944727
 10
4.357859183444848
 20
8.726260366029058
 10
4.382147122638478
 20
8.716614092306767
 10
4.399510415338605
 20
8.70906932821683
 10
4.417080413904209
 20
8.70186907390269
 10
4.479126624525099
 20
8.701248956306257
 10
4.49440563308166
 20
8.703109309095556
 10
4.509736318104589
 20
8.704935210907276
 10
4.554298657603823
 20
8.718439994118485
 10
4.554298657603823
 20
8.718439994118485
 10
4.554298657603823
 20
8.718439994118485
 10
4.535867384598729
 20
8.649400235048933
 10
4.520243866266372
 20
8.647229823461418
 10
4.504499769512488
 20
8.644887156986004
 10
4.476973438426374
 20
8.67224123318422
 10
4.476973438426374
 20
8.67224123318422
 10
4.476973438426374
 20
8.67224123318422
 10
4.477714134444335
 20
8.592900631818361
 10
4.492373025404462
 20
8.58228973072384
 10
4.507169720274907
 20
8.571678829629317
 10
4.515007317674271
 20
8.579395848607152
 10
4.515007317674271
 20
8.579395848607152
 10
4.549682226608154
 20
8.619290080644348
 10
4.606870849390319
 20
8.641097549452246
 10
4.606870849390319
 20
8.641097549452246
 10
4.606870849390319
 20
8.641097549452246
 10
4.59865429123758
 20
8.506015266362567
 10
4.59865429123758
 20
8.506015266362567
 10
4.59865429123758
 20
8.506015266362567
 10
4.32172010796383
 20
8.532990381807407
 10
4.32172010796383
 20
8.532990381807407
 10
4.32172010796383
 20
8.532990381807407
 10
4.299464776447397
 20
8.580291574024221
 10
4.2757969548502
 20
8.594726533630082
 10
4.252198035208163
 20
8.608989238348043
 10
4.208600323081158
 20
8.62097817854575
 10
4.155476915653389
 20
8.62449217825887
 10
4.102560214091097
 20
8.62804062894957
 10
4.057928972636703
 20
8.610849591137342
 10
4.038395268349061
 20
8.59221161226677
 10
4.018878789550207
 20
8.573711437306516
 10
4.003134692796323
 20
8.493578463456325
 10
4.003134692796323
 20
8.493578463456325
 97
        0
 75
     2
 76
     1
 98
        0
  0
SPLINE
  5
4E
330
1F
100
AcDbEntity
  8
Layer 1
370
     0
100
AcDbSpline
210
0.0
220
0.0
230
1.0
 70
    11
 71
     3
 72
    17
 73
    13
 74
     0
 42
0.0000000001
 43
0.0000000001
 40
0.0
 40
0.0
 40
0.0
 40
0.0
 40
1.0
 40
1.0
 40
1.0
 40
2.0
 40
2.0
 40
2.0
 40
3.0
 40
3.0
 40
3.0
 40
4.0
 40
4.0
 40
4.0
 40
4.0
 10
4.534902757226499
 20
8.880841902428799
 30
0.0
 10
4.534024257298219
 20
8.876535530231347
 30
0.0
 10
4.543704981998091
 20
8.857966453315933
 30
0.0
 10
4.546908922912995
 20
8.857966453315933
 30
0.0
 10
4.550354020670957
 20
8.857966453315933
 30
0.0
 10
4.59147126241223
 20
8.895001254214021
 30
0.0
 10
4.592677046627516
 20
8.898170744151347
 30
0.0
 10
4.593624448510956
 20
8.901374685066251
 30
0.0
 10
4.565340195918091
 20
8.900341155738863
 30
0.0
 10
4.555797275128537
 20
8.897102763846378
 30
0.0
 10
4.545944295540767
 20
8.893898822931474
 30
0.0
 10
4.536194668885734
 20
8.885182725603832
 30
0.0
 10
4.534902757226499
 20
8.880841902428799
 30
0.0
  0
HATCH
  5
4F
330
1F
100
AcDbEntity
  8
Layer 1
 62
   168
420
   791100
100
AcDbHatch
 10
0.0
 20
0.0
 30
0.0
210
0.0
220
0.0
230
1.0
  2
SOLID
 70
     1
 71
     0
 91
        1
 92
        1
 93
        1
 72
     4
 94
        3
 73
     0
 74
     1
 95
       17
 96
       13
 40
0.0
 40
0.0
 40
0.0
 40
0.0
 40
1.0
 40
1.0
 40
1.0
 40
2.0
 40
2.0
 40
2.0
 40
3.0
 40
3.0
 40
3.0
 40
4.0
 40
4.0
 40
4.0
 40
4.0
 10
4.534902757226499
 20
8.880841902428799
 10
4.534024257298219
 20
8.876535530231347
 10
4.543704981998091
 20
8.857966453315933
 10
4.546908922912995
 20
8.857966453315933
 10
4.550354020670957
 20
8.857966453315933
 10
4.59147126241223
 20
8.895001254214021
 10
4.592677046627516
 20
8.898170744151347
 10
4.593624448510956
 20
8.901374685066251
 10
4.565340195918091
 20
8.900341155738863
 10
4.555797275128537
 20
8.897102763846378
 10
4.545944295540767
 20
8.893898822931474
 10
4.536194668885734
 20
8.885182725603832
 10
4.534902757226499
 20
8.880841902428799
 97
        0
 75
     2
 76
     1
 98
        0
  0
SPLINE
  5
50
330
1F
100
AcDbEntity
  8
Layer 1
370
     0
100
AcDbSpline
210
0.0
220
0.0
230
1.0
 70
    11
 71
     3
 72
    53
 73
    49
 74
     0
 42
0.0000000001
 43
0.0000000001
 40
0.0
 40
0.0
 40
0.0
 40
0.0
 40
1.0
 40
1.0
 40
1.0
 40
2.0
 40
2.0
 40
2.0
 40
3.0
 40
3.0
 40
3.0
 40
4.0
 40
4.0
 40
4.0
 40
5.0
 40
5.0
 40
5.0
 40
6.0
 40
6.0
 40
6.0
 40
7.0
 40
7.0
 40
7.0
 40
8.0
 40
8.0
 40
8.0
 40
9.0
 40
9.0
 40
9.0
 40
10.0
 40
10.0
 40
10.0
 40
11.0
 40
11.0
 40
11.0
 40
12.0
 40
12.0
 40
12.0
 40
13.0
 40
13.0
 40
13.0
 40
14.0
 40
14.0
 40
14.0
 40
15.0
 40
15.0
 40
15.0
 40
16.0
 40
16.0
 40
16.0
 40
16.0
 10
5.153883471399475
 20
7.269535230052538
 30
0.0
 10
4.82349859641095
 20
7.539872051119792
 30
0.0
 10
5.133746875004189
 20
7.930063823186533
 30
0.0
 10
5.133746875004189
 20
7.930063823186533
 30
0.0
 10
5.133746875004189
 20
7.930063823186533
 30
0.0
 10
5.137898217802533
 20
7.776894776867556
 30
0.0
 10
5.303934704247497
 20
7.539872051119792
 30
0.0
 10
5.583969475503412
 20
7.139689495554962
 30
0.0
 10
6.721626882626311
 20
7.073061304915983
 30
0.0
 10
6.721626882626311
 20
7.073061304915983
 30
0.0
 10
6.721626882626311
 20
7.073061304915983
 30
0.0
 10
5.436036977776538
 20
7.001678879371017
 30
0.0
 10
5.21372481945527
 20
7.019490034779679
 30
0.0
 10
4.991791621887378
 20
7.037301190188341
 30
0.0
 10
3.506231017676718
 20
6.971913234742228
 30
0.0
 10
3.482545970590732
 20
8.18024682236971
 30
0.0
 10
3.464441981872643
 20
9.105427825270322
 30
0.0
 10
4.370692172593255
 20
9.429956034070313
 30
0.0
 10
4.605303329910446
 20
9.551809141769418
 30
0.0
 10
4.940700822136806
 20
9.726199990277438
 30
0.0
 10
5.102878799092853
 20
10.04256331739106
 30
0.0
 10
5.12837252250177
 20
10.19559455979972
 30
0.0
 10
5.222320338361384
 20
10.75879914127129
 30
0.0
 10
5.047929489853364
 20
11.36238026846618
 30
0.0
 10
5.047929489853364
 20
11.36238026846618
 30
0.0
 10
5.047929489853364
 20
11.36238026846618
 30
0.0
 10
6.073207808111552
 20
10.69079291152913
 30
0.0
 10
6.034295428935375
 20
9.833445883482787
 30
0.0
 10
6.014365538405566
 20
9.391233135270824
 30
0.0
 10
5.493983522065453
 20
9.091027316642043
 30
0.0
 10
5.493983522065453
 20
9.091027316642043
 30
0.0
 10
5.493983522065453
 20
9.091027316642043
 30
0.0
 10
5.724305532673982
 20
9.571618453877697
 30
0.0
 10
5.726424267795129
 20
9.786075789310813
 30
0.0
 10
5.731901973230288
 20
10.32974666649475
 30
0.0
 10
5.450041300162652
 20
10.53083702262697
 30
0.0
 10
5.450041300162652
 20
10.53083702262697
 30
0.0
 10
5.450041300162652
 20
10.53083702262697
 30
0.0
 10
5.503853727142014
 20
9.833445883482787
 30
0.0
 10
4.967452006227378
 20
9.471366109121012
 30
0.0
 10
4.539433060778219
 20
9.182494662115925
 30
0.0
 10
3.717036549486394
 20
9.006587970594401
 30
0.0
 10
3.752710536770087
 20
8.200400644253786
 30
0.0
 10
3.782820691174673
 20
7.519718229235716
 30
0.0
 10
4.533404139701785
 20
7.329686636906549
 30
0.0
 10
4.533404139701785
 20
7.329686636906549
 30
0.0
 10
4.843445712429548
 20
7.269535230052538
 30
0.0
 10
5.153883471399475
 20
7.269535230052538
 30
0.0
 10
5.153883471399475
 20
7.269535230052538
 30
0.0
  0
HATCH
  5
51
330
1F
100
AcDbEntity
  8
Layer 1
 62
     2
420
 16116245
100
AcDbHatch
 10
0.0
 20
0.0
 30
0.0
210
0.0
220
0.0
230
1.0
  2
SOLID
 70
     1
 71
     0
 91
        1
 92
        1
 93
        1
 72
     4
 94
        3
 73
     0
 74
     1
 95
       53
 96
       49
 40
0.0
 40
0.0
 40
0.0
 40
0.0
 40
1.0
 40
1.0
 40
1.0
 40
2.0
 40
2.0
 40
2.0
 40
3.0
 40
3.0
 40
3.0
 40
4.0
 40
4.0
 40
4.0
 40
5.0
 40
5.0
 40
5.0
 40
6.0
 40
6.0
 40
6.0
 40
7.0
 40
7.0
 40
7.0
 40
8.0
 40
8.0
 40
8.0
 40
9.0
 40
9.0
 40
9.0
 40
10.0
 40
10.0
 40
10.0
 40
11.0
 40
11.0
 40
11.0
 40
12.0
 40
12.0
 40
12.0
 40
13.0
 40
13.0
 40
13.0
 40
14.0
 40
14.0
 40
14.0
 40
15.0
 40
15.0
 40
15.0
 40
16.0
 40
16.0
 40
16.0
 40
16.0
 10
5.153883471399475
 20
7.269535230052538
 10
4.82349859641095
 20
7.539872051119792
 10
5.133746875004189
 20
7.930063823186533
 10
5.133746875004189
 20
7.930063823186533
 10
5.133746875004189
 20
7.930063823186533
 10
5.137898217802533
 20
7.776894776867556
 10
5.303934704247497
 20
7.539872051119792
 10
5.583969475503412
 20
7.139689495554962
 10
6.721626882626311
 20
7.073061304915983
 10
6.721626882626311
 20
7.073061304915983
 10
6.721626882626311
 20
7.073061304915983
 10
5.436036977776538
 20
7.001678879371017
 10
5.21372481945527
 20
7.019490034779679
 10
4.991791621887378
 20
7.037301190188341
 10
3.506231017676718
 20
6.971913234742228
 10
3.482545970590732
 20
8.18024682236971
 10
3.464441981872643
 20
9.105427825270322
 10
4.370692172593255
 20
9.429956034070313
 10
4.605303329910446
 20
9.551809141769418
 10
4.940700822136806
 20
9.726199990277438
 10
5.102878799092853
 20
10.04256331739106
 10
5.12837252250177
 20
10.19559455979972
 10
5.222320338361384
 20
10.75879914127129
 10
5.047929489853364
 20
11.36238026846618
 10
5.047929489853364
 20
11.36238026846618
 10
5.047929489853364
 20
11.36238026846618
 10
6.073207808111552
 20
10.69079291152913
 10
6.034295428935375
 20
9.833445883482787
 10
6.014365538405566
 20
9.391233135270824
 10
5.493983522065453
 20
9.091027316642043
 10
5.493983522065453
 20
9.091027316642043
 10
5.493983522065453
 20
9.091027316642043
 10
5.724305532673982
 20
9.571618453877697
 10
5.726424267795129
 20
9.786075789310813
 10
5.731901973230288
 20
10.32974666649475
 10
5.450041300162652
 20
10.53083702262697
 10
5.450041300162652
 20
10.53083702262697
 10
5.450041300162652
 20
10.53083702262697
 10
5.503853727142014
 20
9.833445883482787
 10
4.967452006227378
 20
9.471366109121012
 10
4.539433060778219
 20
9.182494662115925
 10
3.717036549486394
 20
9.006587970594401
 10
3.752710536770087
 20
8.200400644253786
 10
3.782820691174673
 20
7.519718229235716
 10
4.533404139701785
 20
7.329686636906549
 10
4.533404139701785
 20
7.329686636906549
 10
4.843445712429548
 20
7.269535230052538
 10
5.153883471399475
 20
7.269535230052538
 10
5.153883471399475
 20
7.269535230052538
 97
        0
 75
     2
 76
     1
 98
        0
  0
INSERT
  5
53
330
1F
100
AcDbEntity
  8
Layer 1
100
AcDbBlockReference
  2
block 2
 10
0.0
 20
0.0
 30
0.0
  0
POLYLINE
  5
BD
330
1F
100
AcDbEntity
  8
Layer 1
370
     0
100
AcDb2dPolyline
 66
     1
 10
0.0
 20
0.0
 30
0.0
  0
VERTEX
  5
BE
330
BD
100
AcDbEntity
  8
Layer 1
370
     0
100
AcDbVertex
100
AcDb2dVertex
 10
-274.1085140926701
 20
0.4330487881757842
 30
0.0
  0
VERTEX
  5
BF
330
BD
100
AcDbEntity
  8
Layer 1
370
     0
100
AcDbVertex
100
AcDb2dVertex
 10
303.847700370678
 20
0.4330487881757842
 30
0.0
  0
SEQEND
  5
C0
330
BD
100
AcDbEntity
  8
Layer 1
370
     0
  0
ENDSEC
  0
SECTION
  2
OBJECTS
  0
DICTIONARY
  5
C
330
0
100
AcDbDictionary
281
     1
  3
ACAD_GROUP
350
D
  3
ACAD_LAYOUT
350
1A
  3
ACAD_MLINESTYLE
350
17
  3
ACAD_PLOTSETTINGS
350
19
  3
ACAD_PLOTSTYLENAME
350
E
  3
ACAD_TABLESTYLE
350
C1
  3
ACAD_VISUALSTYLE
350
2A
  0
DICTIONARY
  5
D
102
{ACAD_REACTORS
330
C
102
}
330
C
100
AcDbDictionary
281
     1
  0
DICTIONARY
  5
1A
102
{ACAD_REACTORS
330
C
102
}
330
C
100
AcDbDictionary
281
     1
  3
Layout1
350
1E
  3
Layout2
350
26
  3
Model
350
22
  0
DICTIONARY
  5
17
102
{ACAD_REACTORS
330
C
102
}
330
C
100
AcDbDictionary
281
     1
  3
Standard
350
18
  0
DICTIONARY
  5
19
102
{ACAD_REACTORS
330
C
102
}
330
C
100
AcDbDictionary
281
     1
  0
ACDBDICTIONARYWDFLT
  5
E
102
{ACAD_REACTORS
330
C
102
}
330
C
100
AcDbDictionary
281
     1
  3
Normal
350
F
100
AcDbDictionaryWithDefault
340
F
  0
DICTIONARY
  5
C1
102
{ACAD_REACTORS
330
C
102
}
330
C
100
AcDbDictionary
281
     1
  0
DICTIONARY
  5
2A
102
{ACAD_REACTORS
330
C
102
}
330
C
100
AcDbDictionary
281
     1
  3
2dWireframe
350
2F
  3
3D Hidden
350
31
  3
3dWireframe
350
30
  3
Basic
350
32
  3
Brighten
350
36
  3
ColorChange
350
3A
  3
Conceptual
350
34
  3
Dim
350
35
  3
Facepattern
350
39
  3
Flat
350
2B
  3
FlatWithEdges
350
2C
  3
Gouraud
350
2D
  3
GouraudWithEdges
350
2E
  3
Linepattern
350
38
  3
Realistic
350
33
  3
Thicken
350
37
  0
LAYOUT
  5
1E
102
{ACAD_REACTORS
330
1A
102
}
330
1A
100
AcDbPlotSettings
  1

  2
none_device
  4

  6

 40
0.0
 41
0.0
 42
0.0
 43
0.0
 44
0.0
 45
0.0
 46
0.0
 47
0.0
 48
0.0
 49
0.0
140
0.0
141
0.0
142
1.0
143
1.0
 70
   688
 72
     0
 73
     0
 74
     5
  7

 75
    16
 76
     0
 77
     2
 78
   300
147
1.0
148
0.0
149
0.0
100
AcDbLayout
  1
Layout1
 70
     1
 71
     1
 10
0.0
 20
0.0
 11
12.0
 21
9.0
 12
0.0
 22
0.0
 32
0.0
 14
1.000000000000000E+20
 24
1.000000000000000E+20
 34
1.000000000000000E+20
 15
-1.000000000000000E+20
 25
-1.000000000000000E+20
 35
-1.000000000000000E+20
146
0.0
 13
0.0
 23
0.0
 33
0.0
 16
1.0
 26
0.0
 36
0.0
 17
0.0
 27
1.0
 37
0.0
 76
     0
330
1B
  0
LAYOUT
  5
26
102
{ACAD_REACTORS
330
1A
102
}
330
1A
100
AcDbPlotSettings
  1

  2
none_device
  4

  6

 40
0.0
 41
0.0
 42
0.0
 43
0.0
 44
0.0
 45
0.0
 46
0.0
 47
0.0
 48
0.0
 49
0.0
140
0.0
141
0.0
142
1.0
143
1.0
 70
   688
 72
     0
 73
     0
 74
     5
  7

 75
    16
 76
     0
 77
     2
 78
   300
147
1.0
148
0.0
149
0.0
100
AcDbLayout
  1
Layout2
 70
     1
 71
     2
 10
0.0
 20
0.0
 11
0.0
 21
0.0
 12
0.0
 22
0.0
 32
0.0
 14
0.0
 24
0.0
 34
0.0
 15
0.0
 25
0.0
 35
0.0
146
0.0
 13
0.0
 23
0.0
 33
0.0
 16
1.0
 26
0.0
 36
0.0
 17
0.0
 27
1.0
 37
0.0
 76
     0
330
23
  0
LAYOUT
  5
22
102
{ACAD_REACTORS
330
1A
102
}
330
1A
100
AcDbPlotSettings
  1

  2
none_device
  4

  6

 40
0.0
 41
0.0
 42
0.0
 43
0.0
 44
0.0
 45
0.0
 46
0.0
 47
0.0
 48
0.0
 49
0.0
140
0.0
141
0.0
142
1.0
143
1.0
 70
  1712
 72
     0
 73
     0
 74
     0
  7

 75
     0
 76
     0
 77
     2
 78
   300
147
1.0
148
0.0
149
0.0
100
AcDbLayout
  1
Model
 70
     1
 71
     0
 10
0.0
 20
0.0
 11
12.0
 21
9.0
 12
0.0
 22
0.0
 32
0.0
 14
1.000000000000000E+20
 24
1.000000000000000E+20
 34
1.000000000000000E+20
 15
-1.000000000000000E+20
 25
-1.000000000000000E+20
 35
-1.000000000000000E+20
146
0.0
 13
0.0
 23
0.0
 33
0.0
 16
1.0
 26
0.0
 36
0.0
 17
0.0
 27
1.0
 37
0.0
 76
     0
330
1F
331
29
  0
MLINESTYLE
  5
18
102
{ACAD_REACTORS
330
17
102
}
330
17
100
AcDbMlineStyle
  2
Standard
 70
     0
  3

 62
   256
 51
90.0
 52
90.0
 71
     2
 49
0.5
 62
   256
  6
BYLAYER
 49
-0.5
 62
   256
  6
BYLAYER
  0
ACDBPLACEHOLDER
  5
F
102
{ACAD_REACTORS
330
E
102
}
330
E
  0
VISUALSTYLE
  5
2F
102
{ACAD_REACTORS
330
2A
102
}
330
2A
100
AcDbVisualStyle
  2
2dWireframe
 70
     4
 71
     0
 72
     2
 73
     0
 90
        0
 40
-0.6
 41
-30.0
 62
     5
 63
     7
421
 16777215
 74
     1
 91
        4
 64
     7
 65
   257
 75
     1
175
     1
 42
1.0
 92
        0
 66
   257
 43
1.0
 76
     1
 77
     6
 78
     2
 67
     7
 79
     5
170
     0
171
     0
290
     0
174
     0
 93
        1
 44
0.0
173
     0
291
     0
 45
0.0
1001
ACAD
1000
AcDbSavedByObjectVersion
1070
     0
  0
VISUALSTYLE
  5
31
102
{ACAD_REACTORS
330
2A
102
}
330
2A
100
AcDbVisualStyle
  2
3D Hidden
 70
     6
 71
     1
 72
     2
 73
     2
 90
        0
 40
-0.6
 41
-30.0
 62
     5
 63
     7
421
 16777215
 74
     2
 91
        2
 64
     7
 65
   257
 75
     2
175
     1
 42
40.0
 92
        0
 66
   257
 43
1.0
 76
     1
 77
     6
 78
     2
 67
     7
 79
     3
170
     0
171
     0
290
     0
174
     0
 93
        1
 44
0.0
173
     0
291
     0
 45
0.0
1001
ACAD
1000
AcDbSavedByObjectVersion
1070
     0
  0
VISUALSTYLE
  5
30
102
{ACAD_REACTORS
330
2A
102
}
330
2A
100
AcDbVisualStyle
  2
3dWireframe
 70
     5
 71
     0
 72
     2
 73
     0
 90
        0
 40
-0.6
 41
-30.0
 62
     5
 63
     7
421
 16777215
 74
     1
 91
        4
 64
     7
 65
   257
 75
     1
175
     1
 42
1.0
 92
        0
 66
   257
 43
1.0
 76
     1
 77
     6
 78
     2
 67
     7
 79
     5
170
     0
171
     0
290
     0
174
     0
 93
        1
 44
0.0
173
     0
291
     0
 45
0.0
1001
ACAD
1000
AcDbSavedByObjectVersion
1070
     0
  0
VISUALSTYLE
  5
32
102
{ACAD_REACTORS
330
2A
102
}
330
2A
100
AcDbVisualStyle
  2
Basic
 70
     7
 71
     1
 72
     0
 73
     1
 90
        0
 40
-0.6
 41
-30.0
 62
     5
 63
     7
421
 16777215
 74
     0
 91
        4
 64
     7
 65
   257
 75
     1
175
     1
 42
1.0
 92
        8
 66
     7
 43
1.0
 76
     1
 77
     6
 78
     2
 67
     7
 79
     5
170
     0
171
     0
290
     0
174
     0
 93
        1
 44
0.0
173
     0
291
     1
 45
0.0
1001
ACAD
1000
AcDbSavedByObjectVersion
1070
     0
  0
VISUALSTYLE
  5
36
102
{ACAD_REACTORS
330
2A
102
}
330
2A
100
AcDbVisualStyle
  2
Brighten
 70
    12
 71
     2
 72
     2
 73
     0
 90
        0
 40
-0.6
 41
-30.0
 62
     5
 63
     7
421
 16777215
 74
     1
 91
        4
 64
     7
 65
   257
 75
     1
175
     1
 42
1.0
 92
        8
 66
     7
 43
1.0
 76
     1
 77
     6
 78
     2
 67
     7
 79
     5
170
     0
171
     0
290
     0
174
     0
 93
        1
 44
50.0
173
     0
291
     1
 45
0.0
1001
ACAD
1000
AcDbSavedByObjectVersion
1070
     0
  0
VISUALSTYLE
  5
3A
102
{ACAD_REACTORS
330
2A
102
}
330
2A
100
AcDbVisualStyle
  2
ColorChange
 70
    16
 71
     2
 72
     2
 73
     3
 90
        0
 40
-0.6
 41
-30.0
 62
     5
 63
     8
421
  8421504
 74
     1
 91
        4
 64
     7
 65
   257
 75
     1
175
     1
 42
1.0
 92
        8
 66
     8
424
  8421504
 43
1.0
 76
     1
 77
     6
 78
     2
 67
     7
 79
     5
170
     0
171
     0
290
     0
174
     0
 93
        1
 44
0.0
173
     0
291
     1
 45
0.0
1001
ACAD
1000
AcDbSavedByObjectVersion
1070
     0
  0
VISUALSTYLE
  5
34
102
{ACAD_REACTORS
330
2A
102
}
330
2A
100
AcDbVisualStyle
  2
Conceptual
 70
     9
 71
     3
 72
     2
 73
     0
 90
        0
 40
-0.6
 41
-30.0
 62
     5
 63
     7
421
 16777215
 74
     2
 91
        2
 64
     7
 65
   257
 75
     1
175
     1
 42
40.0
 92
        8
 66
     7
 43
1.0
 76
     1
 77
     6
 78
     2
 67
     7
 79
     3
170
     0
171
     0
290
     0
174
     0
 93
        1
 44
0.0
173
     0
291
     0
 45
0.0
1001
ACAD
1000
AcDbSavedByObjectVersion
1070
     0
  0
VISUALSTYLE
  5
35
102
{ACAD_REACTORS
330
2A
102
}
330
2A
100
AcDbVisualStyle
  2
Dim
 70
    11
 71
     2
 72
     2
 73
     0
 90
        0
 40
-0.6
 41
-30.0
 62
     5
 63
     7
421
 16777215
 74
     1
 91
        4
 64
     7
 65
   257
 75
     1
175
     1
 42
1.0
 92
        8
 66
     7
 43
1.0
 76
     1
 77
     6
 78
     2
 67
     7
 79
     5
170
     0
171
     0
290
     0
174
     0
 93
        1
 44
-50.0
173
     0
291
     1
 45
0.0
1001
ACAD
1000
AcDbSavedByObjectVersion
1070
     0
  0
VISUALSTYLE
  5
39
102
{ACAD_REACTORS
330
2A
102
}
330
2A
100
AcDbVisualStyle
  2
Facepattern
 70
    15
 71
     2
 72
     2
 73
     0
 90
        0
 40
-0.6
 41
-30.0
 62
     5
 63
     7
421
 16777215
 74
     1
 91
        4
 64
     7
 65
   257
 75
     1
175
     1
 42
1.0
 92
        8
 66
     7
 43
1.0
 76
     1
 77
     6
 78
     2
 67
     7
 79
     5
170
     0
171
     0
290
     0
174
     0
 93
        1
 44
0.0
173
     0
291
     1
 45
0.0
1001
ACAD
1000
AcDbSavedByObjectVersion
1070
     0
  0
VISUALSTYLE
  5
2B
102
{ACAD_REACTORS
330
2A
102
}
330
2A
100
AcDbVisualStyle
  2
Flat
 70
     0
 71
     2
 72
     1
 73
     1
 90
        2
 40
-0.6
 41
30.0
 62
     5
 63
     7
421
 16777215
 74
     0
 91
        4
 64
     7
 65
   257
 75
     1
175
     1
 42
1.0
 92
        8
 66
     7
 43
1.0
 76
     1
 77
     6
 78
     2
 67
     7
 79
     5
170
     0
171
     0
290
     0
174
     0
 93
       13
 44
0.0
173
     0
291
     1
 45
0.0
1001
ACAD
1000
AcDbSavedByObjectVersion
1070
     0
  0
VISUALSTYLE
  5
2C
102
{ACAD_REACTORS
330
2A
102
}
330
2A
100
AcDbVisualStyle
  2
FlatWithEdges
 70
     1
 71
     2
 72
     1
 73
     1
 90
        2
 40
-0.6
 41
30.0
 62
     5
 63
     7
421
 16777215
 74
     1
 91
        4
 64
     7
 65
   257
 75
     1
175
     1
 42
1.0
 92
        0
 66
   257
 43
1.0
 76
     1
 77
     6
 78
     2
 67
     7
 79
     5
170
     0
171
     0
290
     0
174
     0
 93
       13
 44
0.0
173
     0
291
     1
 45
0.0
1001
ACAD
1000
AcDbSavedByObjectVersion
1070
     0
  0
VISUALSTYLE
  5
2D
102
{ACAD_REACTORS
330
2A
102
}
330
2A
100
AcDbVisualStyle
  2
Gouraud
 70
     2
 71
     2
 72
     2
 73
     1
 90
        2
 40
-0.6
 41
30.0
 62
     5
 63
     7
421
 16777215
 74
     0
 91
        4
 64
     7
 65
   257
 75
     1
175
     1
 42
1.0
 92
        0
 66
     7
 43
1.0
 76
     1
 77
     6
 78
     2
 67
     7
 79
     5
170
     0
171
     0
290
     0
174
     0
 93
       13
 44
0.0
173
     0
291
     1
 45
0.0
1001
ACAD
1000
AcDbSavedByObjectVersion
1070
     0
  0
VISUALSTYLE
  5
2E
102
{ACAD_REACTORS
330
2A
102
}
330
2A
100
AcDbVisualStyle
  2
GouraudWithEdges
 70
     3
 71
     2
 72
     2
 73
     1
 90
        2
 40
-0.6
 41
30.0
 62
     5
 63
     7
421
 16777215
 74
     1
 91
        4
 64
     7
 65
   257
 75
     1
175
     1
 42
1.0
 92
        0
 66
   257
 43
1.0
 76
     1
 77
     6
 78
     2
 67
     7
 79
     5
170
     0
171
     0
290
     0
174
     0
 93
       13
 44
0.0
173
     0
291
     1
 45
0.0
1001
ACAD
1000
AcDbSavedByObjectVersion
1070
     0
  0
VISUALSTYLE
  5
38
102
{ACAD_REACTORS
330
2A
102
}
330
2A
100
AcDbVisualStyle
  2
Linepattern
 70
    14
 71
     2
 72
     2
 73
     0
 90
        0
 40
-0.6
 41
-30.0
 62
     5
 63
     7
421
 16777215
 74
     1
 91
        4
 64
     7
 65
   257
 75
     7
175
     7
 42
1.0
 92
        8
 66
     7
 43
1.0
 76
     1
 77
     6
 78
     2
 67
     7
 79
     5
170
     0
171
     0
290
     0
174
     0
 93
        1
 44
0.0
173
     0
291
     1
 45
0.0
1001
ACAD
1000
AcDbSavedByObjectVersion
1070
     0
  0
VISUALSTYLE
  5
33
102
{ACAD_REACTORS
330
2A
102
}
330
2A
100
AcDbVisualStyle
  2
Realistic
 70
     8
 71
     2
 72
     2
 73
     0
 90
        0
 40
-0.6
 41
-30.0
 62
     5
 63
     7
421
 16777215
 74
     1
 91
        0
 64
     7
 65
   257
 75
     1
175
     1
 42
1.0
 92
        8
 66
     8
424
  7895160
 43
1.0
 76
     1
 77
     6
 78
     2
 67
     7
 79
     5
170
     0
171
     0
290
     0
174
     0
 93
       13
 44
0.0
173
     0
291
     0
 45
0.0
1001
ACAD
1000
AcDbSavedByObjectVersion
1070
     0
  0
VISUALSTYLE
  5
37
102
{ACAD_REACTORS
330
2A
102
}
330
2A
100
AcDbVisualStyle
  2
Thicken
 70
    13
 71
     2
 72
     2
 73
     0
 90
        0
 40
-0.6
 41
-30.0
 62
     5
 63
     7
421
 16777215
 74
     1
 91
        4
 64
     7
 65
   257
 75
     1
175
     1
 42
1.0
 92
       12
 66
     7
 43
1.0
 76
     1
 77
     6
 78
     2
 67
     7
 79
     5
170
     0
171
     0
290
     0
174
     0
 93
        1
 44
0.0
173
     0
291
     1
 45
0.0
1001
ACAD
1000
AcDbSavedByObjectVersion
1070
     0
  0
ENDSEC
  0
EOF
